  0
SECTION
  2
HEADER
  9
$ACADVER
  1
AC1015
  9
$ACADMAINTVER
 70
     6
  9
$DWGCODEPAGE
  3
ANSI_1257
  9
$INSBASE
 10
0.0
 20
0.0
 30
0.0
  9
$EXTMIN
 10
0.0
 20
0.0
 30
0.0
  9
$EXTMAX
 10
420.0
 20
297.0
 30
0.0
  9
$LIMMIN
 10
0.0
 20
0.0
  9
$LIMMAX
 10
420.0
 20
297.0
  9
$ORTHOMODE
 70
     0
  9
$REGENMODE
 70
     1
  9
$FILLMODE
 70
     1
  9
$QTEXTMODE
 70
     0
  9
$MIRRTEXT
 70
     1
  9
$LTSCALE
 40
1.0
  9
$ATTMODE
 70
     1
  9
$TEXTSIZE
 40
5.6444444444
  9
$TRACEWID
 40
1.0
  9
$TEXTSTYLE
  7
Standard
  9
$CLAYER
  8
0
  9
$CELTYPE
  6
ByLayer
  9
$CECOLOR
 62
   256
  9
$CELTSCALE
 40
1.0
  9
$DISPSILH
 70
     0
  9
$DIMSCALE
 40
1.0
  9
$DIMASZ
 40
3.175
  9
$DIMEXO
 40
1.0
  9
$DIMDLI
 40
3.75
  9
$DIMRND
 40
0.0
  9
$DIMDLE
 40
0.0
  9
$DIMEXE
 40
1.0
  9
$DIMTP
 40
0.0
  9
$DIMTM
 40
0.0
  9
$DIMTXT
 40
4.9388888889
  9
$DIMCEN
 40
2.5
  9
$DIMTSZ
 40
0.0
  9
$DIMTOL
 70
     0
  9
$DIMLIM
 70
     0
  9
$DIMTIH
 70
     1
  9
$DIMTOH
 70
     1
  9
$DIMSE1
 70
     0
  9
$DIMSE2
 70
     0
  9
$DIMTAD
 70
     1
  9
$DIMZIN
 70
     0
  9
$DIMBLK
  1

  9
$DIMASO
 70
     1
  9
$DIMSHO
 70
     1
  9
$DIMPOST
  1

  9
$DIMAPOST
  1

  9
$DIMALT
 70
     0
  9
$DIMALTD
 70
     3
  9
$DIMALTF
 40
0.0393700787
  9
$DIMLFAC
 40
1.0
  9
$DIMTOFL
 70
     1
  9
$DIMTVP
 40
0.0
  9
$DIMTIX
 70
     0
  9
$DIMSOXD
 70
     0
  9
$DIMSAH
 70
     0
  9
$DIMBLK1
  1

  9
$DIMBLK2
  1

  9
$DIMSTYLE
  2
ISO-25
  9
$DIMCLRD
 70
     0
  9
$DIMCLRE
 70
     0
  9
$DIMCLRT
 70
     0
  9
$DIMTFAC
 40
1.0
  9
$DIMGAP
 40
1.524
  9
$DIMJUST
 70
     0
  9
$DIMSD1
 70
     0
  9
$DIMSD2
 70
     0
  9
$DIMTOLJ
 70
     0
  9
$DIMTZIN
 70
     0
  9
$DIMALTZ
 70
     0
  9
$DIMALTTZ
 70
     0
  9
$DIMUPT
 70
     0
  9
$DIMDEC
 70
     1
  9
$DIMTDEC
 70
     1
  9
$DIMALTU
 70
     2
  9
$DIMALTTD
 70
     3
  9
$DIMTXSTY
  7
Standard
  9
$DIMAUNIT
 70
     0
  9
$DIMADEC
 70
     1
  9
$DIMALTRND
 40
0.0
  9
$DIMAZIN
 70
     0
  9
$DIMDSEP
 70
    44
  9
$DIMATFIT
 70
     3
  9
$DIMFRAC
 70
     0
  9
$DIMLDRBLK
  1

  9
$DIMLUNIT
 70
     2
  9
$DIMLWD
 70
    -2
  9
$DIMLWE
 70
    -2
  9
$DIMTMOVE
 70
     0
  9
$LUNITS
 70
     2
  9
$LUPREC
 70
     1
  9
$SKETCHINC
 40
1.0
  9
$FILLETRAD
 40
10.0
  9
$AUNITS
 70
     0
  9
$AUPREC
 70
     1
  9
$MENU
  1
.
  9
$ELEVATION
 40
0.0
  9
$PELEVATION
 40
0.0
  9
$THICKNESS
 40
0.0
  9
$LIMCHECK
 70
     0
  9
$CHAMFERA
 40
0.0
  9
$CHAMFERB
 40
0.0
  9
$CHAMFERC
 40
0.0
  9
$CHAMFERD
 40
0.0
  9
$SKPOLY
 70
     0
  9
$TDCREATE
 40
2459180.635843252
  9
$TDUCREATE
 40
2459180.552509919
  9
$TDUPDATE
 40
2459180.635843715
  9
$TDUUPDATE
 40
2459180.552510382
  9
$TDINDWG
 40
0.0000000116
  9
$TDUSRTIMER
 40
0.0000000116
  9
$USRTIMER
 70
     1
  9
$ANGBASE
 50
0.0
  9
$ANGDIR
 70
     0
  9
$PDMODE
 70
     0
  9
$PDSIZE
 40
-1.0
  9
$PLINEWID
 40
0.0
  9
$SPLFRAME
 70
     0
  9
$SPLINETYPE
 70
     6
  9
$SPLINESEGS
 70
     8
  9
$HANDSEED
  5
6CB
  9
$SURFTAB1
 70
     6
  9
$SURFTAB2
 70
     6
  9
$SURFTYPE
 70
     6
  9
$SURFU
 70
     6
  9
$SURFV
 70
     6
  9
$UCSBASE
  2

  9
$UCSNAME
  2

  9
$UCSORG
 10
0.0
 20
0.0
 30
0.0
  9
$UCSXDIR
 10
1.0
 20
0.0
 30
0.0
  9
$UCSYDIR
 10
0.0
 20
1.0
 30
0.0
  9
$UCSORTHOREF
  2

  9
$UCSORTHOVIEW
 70
     0
  9
$UCSORGTOP
 10
0.0
 20
0.0
 30
0.0
  9
$UCSORGBOTTOM
 10
0.0
 20
0.0
 30
0.0
  9
$UCSORGLEFT
 10
0.0
 20
0.0
 30
0.0
  9
$UCSORGRIGHT
 10
0.0
 20
0.0
 30
0.0
  9
$UCSORGFRONT
 10
0.0
 20
0.0
 30
0.0
  9
$UCSORGBACK
 10
0.0
 20
0.0
 30
0.0
  9
$PUCSBASE
  2

  9
$PUCSNAME
  2

  9
$PUCSORG
 10
0.0
 20
0.0
 30
0.0
  9
$PUCSXDIR
 10
1.0
 20
0.0
 30
0.0
  9
$PUCSYDIR
 10
0.0
 20
1.0
 30
0.0
  9
$PUCSORTHOREF
  2

  9
$PUCSORTHOVIEW
 70
     0
  9
$PUCSORGTOP
 10
0.0
 20
0.0
 30
0.0
  9
$PUCSORGBOTTOM
 10
0.0
 20
0.0
 30
0.0
  9
$PUCSORGLEFT
 10
0.0
 20
0.0
 30
0.0
  9
$PUCSORGRIGHT
 10
0.0
 20
0.0
 30
0.0
  9
$PUCSORGFRONT
 10
0.0
 20
0.0
 30
0.0
  9
$PUCSORGBACK
 10
0.0
 20
0.0
 30
0.0
  9
$USERI1
 70
     0
  9
$USERI2
 70
     0
  9
$USERI3
 70
     0
  9
$USERI4
 70
     0
  9
$USERI5
 70
     0
  9
$USERR1
 40
0.0
  9
$USERR2
 40
0.0
  9
$USERR3
 40
0.0
  9
$USERR4
 40
0.0
  9
$USERR5
 40
0.0
  9
$WORLDVIEW
 70
     1
  9
$SHADEDGE
 70
     3
  9
$SHADEDIF
 70
    70
  9
$TILEMODE
 70
     1
  9
$MAXACTVP
 70
    64
  9
$PINSBASE
 10
0.0
 20
0.0
 30
0.0
  9
$PLIMCHECK
 70
     0
  9
$PEXTMIN
 10
1.0000000000E+20
 20
1.0000000000E+20
 30
1.0000000000E+20
  9
$PEXTMAX
 10
-1.0000000000E+20
 20
-1.0000000000E+20
 30
-1.0000000000E+20
  9
$PLIMMIN
 10
0.0
 20
0.0
  9
$PLIMMAX
 10
420.0
 20
297.0
  9
$UNITMODE
 70
     0
  9
$VISRETAIN
 70
     1
  9
$PLINEGEN
 70
     0
  9
$PSLTSCALE
 70
     1
  9
$TREEDEPTH
 70
  3020
  9
$CMLSTYLE
  2
Standard
  9
$CMLJUST
 70
     0
  9
$CMLSCALE
 40
20.0
  9
$PROXYGRAPHICS
 70
     1
  9
$MEASUREMENT
 70
     1
  9
$CELWEIGHT
370
    -1
  9
$ENDCAPS
280
     0
  9
$JOINSTYLE
280
     0
  9
$LWDISPLAY
290
     1
  9
$INSUNITS
 70
     4
  9
$HYPERLINKBASE
  1

  9
$STYLESHEET
  1

  9
$XEDIT
290
     1
  9
$CEPSNTYPE
380
     0
  9
$PSTYLEMODE
290
     1
  9
$FINGERPRINTGUID
  2
{79b69ac1-77f9-4b0c-a1a9-339c5ce3f625}
  9
$VERSIONGUID
  2
{FAEB1C32-E019-11D5-929B-00C0DF256EC4}
  9
$EXTNAMES
290
     1
  9
$PSVPSCALE
 40
0.0
  9
$OLESTARTUP
290
     0
  0
ENDSEC
  0
SECTION
  2
CLASSES
  0
CLASS
  1
ACDBDICTIONARYWDFLT
  2
AcDbDictionaryWithDefault
  3
ObjectDBX Classes
 90
        0
280
     0
281
     0
  0
CLASS
  1
VISUALSTYLE
  2
AcDbVisualStyle
  3
ObjectDBX Classes
 90
     4095
280
     0
281
     0
  0
CLASS
  1
MATERIAL
  2
AcDbMaterial
  3
ObjectDBX Classes
 90
     1153
280
     0
281
     0
  0
CLASS
  1
SCALE
  2
AcDbScale
  3
ObjectDBX Classes
 90
     1153
280
     0
281
     0
  0
CLASS
  1
TABLESTYLE
  2
AcDbTableStyle
  3
ObjectDBX Classes
 90
     4095
280
     0
281
     0
  0
CLASS
  1
MLEADERSTYLE
  2
AcDbMLeaderStyle
  3
ACDB_MLEADERSTYLE_CLASS
 90
     4095
280
     0
281
     0
  0
CLASS
  1
SUN
  2
AcDbSun
  3
SCENEOE
 90
     1153
280
     0
281
     0
  0
CLASS
  1
ACDBPLACEHOLDER
  2
AcDbPlaceHolder
  3
ObjectDBX Classes
 90
        0
280
     0
281
     0
  0
CLASS
  1
LAYOUT
  2
AcDbLayout
  3
ObjectDBX Classes
 90
        0
280
     0
281
     0
  0
ENDSEC
  0
SECTION
  2
TABLES
  0
TABLE
  2
VPORT
  5
8
330
0
100
AcDbSymbolTable
 70
     1
  0
VPORT
  5
29
330
8
100
AcDbSymbolTableRecord
100
AcDbViewportTableRecord
  2
*Active
 70
     0
 10
0.0
 20
0.0
 11
1.0
 21
1.0
 12
210.0
 22
148.5
 13
0.0
 23
0.0
 14
10.0
 24
10.0
 15
10.0
 25
10.0
 16
0.0
 26
0.0
 36
1.0
 17
0.0
 27
0.0
 37
0.0
 40
297.0
 41
1.4141414141
 42
50.0
 43
0.0
 44
0.0
 50
0.0
 51
0.0
 71
     0
 72
  2000
 73
     1
 74
     3
 75
     0
 76
     0
 77
     0
 78
     0
281
     0
 65
     1
110
0.0
120
0.0
130
0.0
111
1.0
121
0.0
131
0.0
112
0.0
122
1.0
132
0.0
 79
     0
146
0.0
  0
ENDTAB
  0
TABLE
  2
LTYPE
  5
5
330
0
100
AcDbSymbolTable
 70
     6
  0
LTYPE
  5
14
330
5
100
AcDbSymbolTableRecord
100
AcDbLinetypeTableRecord
  2
ByBlock
 70
     0
  3

 72
    65
 73
     0
 40
0.0
  0
LTYPE
  5
15
330
5
100
AcDbSymbolTableRecord
100
AcDbLinetypeTableRecord
  2
ByLayer
 70
     0
  3

 72
    65
 73
     0
 40
0.0
  0
LTYPE
  5
16
330
5
100
AcDbSymbolTableRecord
100
AcDbLinetypeTableRecord
  2
Continuous
 70
     0
  3
Solid line
 72
    65
 73
     0
 40
0.0
  0
LTYPE
  5
6E
330
5
100
AcDbSymbolTableRecord
100
AcDbLinetypeTableRecord
  2
HIDDEN
 70
     0
  3
Hidden __ __ __ __ __ __ __ __ __ __ __ __ __ __
 72
    65
 73
     2
 40
1.905
 49
1.27
 74
     0
 49
-0.635
 74
     0
  0
LTYPE
  5
6F
330
5
100
AcDbSymbolTableRecord
100
AcDbLinetypeTableRecord
  2
PHANTOM
 70
     0
  3
Phantom ______  __  __  ______  __  __  ______
 72
    65
 73
     6
 40
12.7
 49
6.35
 74
     0
 49
-1.27
 74
     0
 49
1.27
 74
     0
 49
-1.27
 74
     0
 49
1.27
 74
     0
 49
-1.27
 74
     0
  0
LTYPE
  5
70
330
5
100
AcDbSymbolTableRecord
100
AcDbLinetypeTableRecord
  2
CENTER
 70
     0
  3
Center ____ _ ____ _ ____ _ ____ _ ____ _ ____
 72
    65
 73
     4
 40
10.16
 49
6.35
 74
     0
 49
-1.27
 74
     0
 49
1.27
 74
     0
 49
-1.27
 74
     0
  0
LTYPE
  5
71
330
5
100
AcDbSymbolTableRecord
100
AcDbLinetypeTableRecord
  2
CENTERX2
 70
     0
  3
Center (2x) ________  __  ________  __  _____
 72
    65
 73
     4
 40
20.32
 49
12.7
 74
     0
 49
-2.54
 74
     0
 49
2.54
 74
     0
 49
-2.54
 74
     0
  0
LTYPE
  5
72
330
5
100
AcDbSymbolTableRecord
100
AcDbLinetypeTableRecord
  2
DOT2
 70
     0
  3
Dot (.5x) ........................................
 72
    65
 73
     2
 40
0.635
 49
0.0
 74
     0
 49
-0.635
 74
     0
  0
ENDTAB
  0
TABLE
  2
LAYER
  5
2
330
0
100
AcDbSymbolTable
 70
     2
  0
LAYER
  5
10
330
2
100
AcDbSymbolTableRecord
100
AcDbLayerTableRecord
  2
0
 70
     0
 62
     7
  6
Continuous
370
    -3
390
F
  0
LAYER
  5
73
330
2
100
AcDbSymbolTableRecord
100
AcDbLayerTableRecord
  2
LENKIMO
 70
     0
 62
     1
  6
CENTERX2
370
    -3
390
F
  0
ENDTAB
  0
TABLE
  2
STYLE
  5
3
330
0
100
AcDbSymbolTable
 70
     1
  0
STYLE
  5
11
330
3
100
AcDbSymbolTableRecord
100
AcDbTextStyleTableRecord
  2
Standard
 70
     0
 40
0.0
 41
1.0
 50
0.0
 71
     0
 42
5.6444444444
  3
txt
  4

  0
ENDTAB
  0
TABLE
  2
VIEW
  5
6
330
0
100
AcDbSymbolTable
 70
     0
  0
ENDTAB
  0
TABLE
  2
UCS
  5
7
330
0
100
AcDbSymbolTable
 70
     0
  0
ENDTAB
  0
TABLE
  2
APPID
  5
9
330
0
100
AcDbSymbolTable
 70
     1
  0
APPID
  5
12
330
9
100
AcDbSymbolTableRecord
100
AcDbRegAppTableRecord
  2
ACAD
 70
     0
  0
ENDTAB
  0
TABLE
  2
DIMSTYLE
  5
A
330
0
100
AcDbSymbolTable
 70
     1
100
AcDbDimStyleTable
  0
DIMSTYLE
105
27
330
A
100
AcDbSymbolTableRecord
100
AcDbDimStyleTableRecord
  2
ISO-25
 70
     0
 41
2.5
 42
0.625
 43
3.75
 44
1.25
 73
     0
 74
     0
 77
     1
 78
     8
140
2.5
141
2.5
143
0.0393700787
147
0.625
171
     3
172
     1
178
     0
271
     2
272
     2
274
     3
278
    44
283
     0
284
     8
340
11
  0
ENDTAB
  0
TABLE
  2
BLOCK_RECORD
  5
1
330
0
100
AcDbSymbolTable
 70
     2
  0
BLOCK_RECORD
  5
1F
330
1
100
AcDbSymbolTableRecord
100
AcDbBlockTableRecord
  2
*Model_Space
340
22
  0
BLOCK_RECORD
  5
1B
330
1
100
AcDbSymbolTableRecord
100
AcDbBlockTableRecord
  2
*Paper_Space
340
1E
  0
BLOCK_RECORD
  5
23
330
1
100
AcDbSymbolTableRecord
100
AcDbBlockTableRecord
  2
*Paper_Space0
340
26
  0
BLOCK_RECORD
  5
74
330
1
100
AcDbSymbolTableRecord
100
AcDbBlockTableRecord
  2
Block11_2
340
0
  0
ENDTAB
  0
ENDSEC
  0
SECTION
  2
BLOCKS
  0
BLOCK
  5
20
330
1F
100
AcDbEntity
  8
0
100
AcDbBlockBegin
  2
*Model_Space
 70
     0
 10
0.0
 20
0.0
 30
0.0
  3
*Model_Space
  1

  0
ENDBLK
  5
21
330
1F
100
AcDbEntity
  8
0
100
AcDbBlockEnd
  0
BLOCK
  5
1C
330
1B
100
AcDbEntity
 67
     1
  8
0
100
AcDbBlockBegin
  2
*Paper_Space
 70
     0
 10
0.0
 20
0.0
 30
0.0
  3
*Paper_Space
  1

  0
ENDBLK
  5
1D
330
1B
100
AcDbEntity
 67
     1
  8
0
100
AcDbBlockEnd
  0
BLOCK
  5
24
330
23
100
AcDbEntity
  8
0
100
AcDbBlockBegin
  2
*Paper_Space0
 70
     0
 10
0.0
 20
0.0
 30
0.0
  3
*Paper_Space0
  1

  0
ENDBLK
  5
25
330
23
100
AcDbEntity
  8
0
100
AcDbBlockEnd
  0
BLOCK
  5
75
330
74
100
AcDbEntity
  8
0
100
AcDbBlockBegin
  2
Block11_2
 70
     0
 10
0.0
 20
0.0
 30
0.0
  3
Block11_2
  1

  0
LINE
  5
77
330
74
100
AcDbEntity
  8
0
  6
Continuous
100
AcDbLine
 10
-15.7956326374
 20
2.3055746011
 30
0.0
 11
-18.0649288667
 21
1.8146036087
 31
0.0
  0
LINE
  5
78
330
74
100
AcDbEntity
  8
0
  6
Continuous
100
AcDbLine
 10
-15.6988785554
 20
-9.1195335787
 30
0.0
 11
-10.2261014967
 21
-7.9354771524
 31
0.0
  0
LINE
  5
79
330
74
100
AcDbEntity
  8
0
  6
Continuous
100
AcDbLine
 10
-10.2261014967
 20
-7.9354771524
 30
0.0
 11
-10.6655808869
 21
-5.9041780766
 31
0.0
  0
LINE
  5
7A
330
74
100
AcDbEntity
  8
0
  6
Continuous
100
AcDbLine
 10
-10.6655808869
 20
-5.9041780766
 30
0.0
 11
-13.8699456036
 21
-6.5974547429
 31
0.0
  0
LINE
  5
7B
330
74
100
AcDbEntity
  8
0
  6
Continuous
100
AcDbLine
 10
-8.296070931
 20
1.802048972
 30
0.0
 11
-6.9198111955
 21
2.0998080743
 31
0.0
  0
LINE
  5
7C
330
74
100
AcDbEntity
  8
0
  6
Continuous
100
AcDbLine
 10
-5.4333831358
 20
-4.7719736412
 30
0.0
 11
-6.8095376466
 21
-5.0697099777
 31
0.0
  0
LINE
  5
7D
330
74
100
AcDbEntity
  8
0
  6
Continuous
100
AcDbLine
 10
-11.0044904538
 20
3.3421566929
 30
0.0
 11
-8.6388294738
 21
-7.5920647278
 31
0.0
  0
LINE
  5
7E
330
74
100
AcDbEntity
  8
0
  6
Continuous
100
AcDbLine
 10
-8.6388294738
 20
-7.5920647278
 30
0.0
 11
-8.6384401425
 21
-7.5919804944
 31
0.0
  0
LINE
  5
7F
330
74
100
AcDbEntity
  8
0
  6
Continuous
100
AcDbLine
 10
-8.6384401425
 20
-7.5919804944
 30
0.0
 11
-4.4940245505
 21
-6.6953201952
 31
0.0
  0
LINE
  5
80
330
74
100
AcDbEntity
  8
0
  6
Continuous
100
AcDbLine
 10
-6.8595855671
 20
4.238922853
 30
0.0
 11
-11.0044904538
 21
3.3421566929
 31
0.0
  0
LINE
  5
81
330
74
100
AcDbEntity
  8
0
  6
Continuous
100
AcDbLine
 10
-32.9933593229
 20
-3.3005605139
 30
0.0
 11
-32.8591663041
 21
-3.2715273367
 31
0.0
  0
LINE
  5
82
330
74
100
AcDbEntity
  8
0
  6
Continuous
100
AcDbLine
 10
-31.5697721187
 20
-3.9678201523
 30
0.0
 11
-29.2969561243
 21
-3.4760876451
 31
0.0
  0
LINE
  5
83
330
74
100
AcDbEntity
  8
0
  6
Continuous
100
AcDbLine
 10
-33.2794920496
 20
-1.2667721217
 30
0.0
 11
-33.3448839193
 21
-1.2809199049
 31
0.0
  0
LINE
  5
84
330
74
100
AcDbEntity
  8
0
  6
Continuous
100
AcDbLine
 10
-31.3289079349
 20
-10.5856399919
 30
0.0
 11
-31.4650581325
 21
-10.6150966123
 31
0.0
  0
LINE
  5
85
330
74
100
AcDbEntity
  8
0
  6
Continuous
100
AcDbLine
 10
-32.8822392925
 20
-9.9377601564
 30
0.0
 11
-35.1888692339
 21
-10.4368084414
 31
0.0
  0
LINE
  5
86
330
74
100
AcDbEntity
  8
0
  6
Continuous
100
AcDbLine
 10
-31.5949683304
 20
-12.7295787952
 30
0.0
 11
-30.2063920476
 21
-12.4291549603
 31
0.0
  0
LINE
  5
87
330
74
100
AcDbEntity
  8
0
  6
Continuous
100
AcDbLine
 10
6.262509235
 20
-4.3681026205
 30
0.0
 11
8.6370616994
 21
-3.8543590356
 31
0.0
  0
LINE
  5
88
330
74
100
AcDbEntity
  8
0
  6
Continuous
100
AcDbLine
 10
8.6370616994
 20
-3.8543590356
 30
0.0
 11
3.9059396663
 21
6.5680857621
 31
0.0
  0
LINE
  5
89
330
74
100
AcDbEntity
  8
0
  6
Continuous
100
AcDbLine
 10
3.9059396663
 20
6.5680857621
 30
0.0
 11
0.0
 21
5.7230206493
 31
0.0
  0
LINE
  5
8A
330
74
100
AcDbEntity
  8
0
  6
Continuous
100
AcDbLine
 10
0.0
 20
5.7230206493
 30
0.0
 11
0.0
 21
-5.7230206493
 31
0.0
  0
LINE
  5
8B
330
74
100
AcDbEntity
  8
0
  6
Continuous
100
AcDbLine
 10
0.0
 20
-5.7230206493
 30
0.0
 11
2.3746576891
 21
-5.2092542987
 31
0.0
  0
LINE
  5
8C
330
74
100
AcDbEntity
  8
0
  6
Continuous
100
AcDbLine
 10
2.3746576891
 20
-5.2092542987
 30
0.0
 11
2.3747844598
 21
-3.0912381741
 31
0.0
  0
LINE
  5
8D
330
74
100
AcDbEntity
  8
0
  6
Continuous
100
AcDbLine
 10
2.3747844598
 20
-3.0912381741
 30
0.0
 11
4.0318309599
 21
-2.7327297722
 31
0.0
  0
LINE
  5
8E
330
74
100
AcDbEntity
  8
0
  6
Continuous
100
AcDbLine
 10
4.0318309599
 20
-2.7327297722
 30
0.0
 11
3.5923515697
 21
-0.7014306964
 31
0.0
  0
LINE
  5
8F
330
74
100
AcDbEntity
  8
0
  6
Continuous
100
AcDbLine
 10
3.5923515697
 20
-0.7014306964
 30
0.0
 11
2.3750284336
 21
-0.9648032524
 31
0.0
  0
LINE
  5
90
330
74
100
AcDbEntity
  8
0
  6
Continuous
100
AcDbLine
 10
2.3750284336
 20
-0.9648032524
 30
0.0
 11
2.3752084601
 21
4.1936873712
 31
0.0
  0
LINE
  5
91
330
74
100
AcDbEntity
  8
0
  6
Continuous
100
AcDbLine
 10
2.3752084601
 20
4.1936873712
 30
0.0
 11
6.262509235
 21
-4.3681026205
 31
0.0
  0
LINE
  5
92
330
74
100
AcDbEntity
  8
0
  6
Continuous
100
AcDbLine
 10
-53.0629352118
 20
-11.4801779454
 30
0.0
 11
-50.7945341276
 21
-8.0228043203
 31
0.0
  0
LINE
  5
93
330
74
100
AcDbEntity
  8
0
  6
Continuous
100
AcDbLine
 10
-50.7945341276
 20
-8.0228043203
 30
0.0
 11
-54.2891069366
 21
-5.8122833411
 31
0.0
  0
LINE
  5
94
330
74
100
AcDbEntity
  8
0
  6
Continuous
100
AcDbLine
 10
-54.2891069366
 20
-5.8122833411
 30
0.0
 11
-51.4073820962
 21
-5.1888110564
 31
0.0
  0
LINE
  5
95
330
74
100
AcDbEntity
  8
0
  6
Continuous
100
AcDbLine
 10
-51.4073820962
 20
-5.1888110564
 30
0.0
 11
-47.9127327975
 21
-7.3992273667
 31
0.0
  0
LINE
  5
96
330
74
100
AcDbEntity
  8
0
  6
Continuous
100
AcDbLine
 10
-47.9127327975
 20
-7.3992273667
 30
0.0
 11
-50.1813587974
 21
-10.8569360435
 31
0.0
  0
LINE
  5
97
330
74
100
AcDbEntity
  8
0
  6
Continuous
100
AcDbLine
 10
-50.1813587974
 20
-10.8569360435
 30
0.0
 11
-53.0628942334
 21
-11.4803673498
 31
0.0
  0
LINE
  5
98
330
74
100
AcDbEntity
  8
0
  6
Continuous
100
AcDbLine
 10
-53.0628942334
 20
-11.4803673498
 30
0.0
 11
-53.0629352118
 21
-11.4801779454
 31
0.0
  0
LINE
  5
99
330
74
100
AcDbEntity
  8
0
  6
Continuous
100
AcDbLine
 10
-42.7624916815
 20
-3.31845567
 30
0.0
 11
-45.0307950789
 21
-6.7757971452
 31
0.0
  0
LINE
  5
9A
330
74
100
AcDbEntity
  8
0
  6
Continuous
100
AcDbLine
 10
-45.0307950789
 20
-6.7757971452
 30
0.0
 11
-48.5254573289
 21
-4.5652955168
 31
0.0
  0
LINE
  5
9B
330
74
100
AcDbEntity
  8
0
  6
Continuous
100
AcDbLine
 10
-48.5254573289
 20
-4.5652955168
 30
0.0
 11
-48.5257466967
 21
-4.5653581227
 31
0.0
  0
LINE
  5
9C
330
74
100
AcDbEntity
  8
0
  6
Continuous
100
AcDbLine
 10
-48.5257466967
 20
-4.5653581227
 30
0.0
 11
-47.9126146215
 21
-7.399289919
 31
0.0
  0
LINE
  5
9D
330
74
100
AcDbEntity
  8
0
  6
Continuous
100
AcDbLine
 10
-47.9126146215
 20
-7.399289919
 30
0.0
 11
-44.4177372167
 21
-9.6098441329
 31
0.0
  0
LINE
  5
9E
330
74
100
AcDbEntity
  8
0
  6
Continuous
100
AcDbLine
 10
-44.4177372167
 20
-9.6098441329
 30
0.0
 11
-42.1490649772
 21
-6.1523237222
 31
0.0
  0
LINE
  5
9F
330
74
100
AcDbEntity
  8
0
  6
Continuous
100
AcDbLine
 10
-42.1490649772
 20
-6.1523237222
 30
0.0
 11
-42.7621970524
 21
-3.3183919259
 31
0.0
  0
LINE
  5
A0
330
74
100
AcDbEntity
  8
0
  6
Continuous
100
AcDbLine
 10
-42.7621970524
 20
-3.3183919259
 30
0.0
 11
-42.7624916815
 21
-3.31845567
 31
0.0
  0
LINE
  5
A1
330
74
100
AcDbEntity
  8
0
  6
Continuous
100
AcDbLine
 10
-41.535889647
 20
-8.9864554454
 30
0.0
 11
-43.8045413973
 21
-12.4440705583
 31
0.0
  0
LINE
  5
A2
330
74
100
AcDbEntity
  8
0
  6
Continuous
100
AcDbLine
 10
-43.8045413973
 20
-12.4440705583
 30
0.0
 11
-40.3564529382
 21
-14.625159785
 31
0.0
  0
LINE
  5
A3
330
74
100
AcDbEntity
  8
0
  6
Continuous
100
AcDbLine
 10
-40.3564529382
 20
-14.625159785
 30
0.0
 11
-43.2382724808
 21
-15.2486525588
 31
0.0
  0
LINE
  5
A4
330
74
100
AcDbEntity
  8
0
  6
Continuous
100
AcDbLine
 10
-43.2382724808
 20
-15.2486525588
 30
0.0
 11
-46.686243472
 21
-13.0676480676
 31
0.0
  0
LINE
  5
A5
330
74
100
AcDbEntity
  8
0
  6
Continuous
100
AcDbLine
 10
-46.686243472
 20
-13.0676480676
 30
0.0
 11
-44.4177144509
 21
-9.6099493576
 31
0.0
  0
LINE
  5
A6
330
74
100
AcDbEntity
  8
0
  6
Continuous
100
AcDbLine
 10
-44.4177144509
 20
-9.6099493576
 30
0.0
 11
-41.535889647
 21
-8.9864554454
 31
0.0
  0
LINE
  5
A7
330
74
100
AcDbEntity
  8
0
  6
Continuous
100
AcDbLine
 10
-51.8063383656
 20
-17.1023866618
 30
0.0
 11
-49.5681857438
 21
-13.6910572443
 31
0.0
  0
LINE
  5
A8
330
74
100
AcDbEntity
  8
0
  6
Continuous
100
AcDbLine
 10
-49.5681857438
 20
-13.6910572443
 30
0.0
 11
-46.1199973213
 21
-15.8721248435
 31
0.0
  0
LINE
  5
A9
330
74
100
AcDbEntity
  8
0
  6
Continuous
100
AcDbLine
 10
-46.1199973213
 20
-15.8721248435
 30
0.0
 11
-46.0813956519
 21
-15.8637732234
 31
0.0
  0
LINE
  5
AA
330
74
100
AcDbEntity
  8
0
  6
Continuous
100
AcDbLine
 10
-46.0813956519
 20
-15.8637732234
 30
0.0
 11
-46.6863662012
 21
-13.0675644704
 31
0.0
  0
LINE
  5
AB
330
74
100
AcDbEntity
  8
0
  6
Continuous
100
AcDbLine
 10
-46.6863662012
 20
-13.0675644704
 30
0.0
 11
-50.1813587974
 21
-10.8569360435
 31
0.0
  0
LINE
  5
AC
330
74
100
AcDbEntity
  8
0
  6
Continuous
100
AcDbLine
 10
-50.1813587974
 20
-10.8569360435
 30
0.0
 11
-52.4497621582
 21
-14.3142991462
 31
0.0
  0
LINE
  5
AD
330
74
100
AcDbEntity
  8
0
  6
Continuous
100
AcDbLine
 10
-52.4497621582
 20
-14.3142991462
 30
0.0
 11
-51.8447506306
 21
-17.1106973035
 31
0.0
  0
LINE
  5
AE
330
74
100
AcDbEntity
  8
0
  6
Continuous
100
AcDbLine
 10
-51.8447506306
 20
-17.1106973035
 30
0.0
 11
-51.8063383656
 21
-17.1023866618
 31
0.0
  0
LINE
  5
AF
330
74
100
AcDbEntity
  8
0
  6
Continuous
100
AcDbLine
 10
-20.0432683672
 20
-10.0594590717
 30
0.0
 11
-17.6687053803
 21
-9.5457132103
 31
0.0
  0
LINE
  5
B0
330
74
100
AcDbEntity
  8
0
  6
Continuous
100
AcDbLine
 10
-17.6687053803
 20
-9.5457132103
 30
0.0
 11
-22.3998379359
 21
0.8767293109
 31
0.0
  0
LINE
  5
B1
330
74
100
AcDbEntity
  8
0
  6
Continuous
100
AcDbLine
 10
-22.3998379359
 20
0.8767293109
 30
0.0
 11
-26.3058670432
 21
0.0316448472
 31
0.0
  0
LINE
  5
B2
330
74
100
AcDbEntity
  8
0
  6
Continuous
100
AcDbLine
 10
-26.3058670432
 20
0.0316448472
 30
0.0
 11
-26.3056723775
 21
-11.4143543348
 31
0.0
  0
LINE
  5
B3
330
74
100
AcDbEntity
  8
0
  6
Continuous
100
AcDbLine
 10
-26.3056723775
 20
-11.4143543348
 30
0.0
 11
-23.9311146519
 21
-10.9006096116
 31
0.0
  0
LINE
  5
B4
330
74
100
AcDbEntity
  8
0
  6
Continuous
100
AcDbLine
 10
-23.9311146519
 20
-10.9006096116
 30
0.0
 11
-23.9309931424
 21
-8.7825946253
 31
0.0
  0
LINE
  5
B5
330
74
100
AcDbEntity
  8
0
  6
Continuous
100
AcDbLine
 10
-23.9309931424
 20
-8.7825946253
 30
0.0
 11
-22.2738308951
 21
-8.4240611811
 31
0.0
  0
LINE
  5
B6
330
74
100
AcDbEntity
  8
0
  6
Continuous
100
AcDbLine
 10
-22.2738308951
 20
-8.4240611811
 30
0.0
 11
-22.7133102854
 21
-6.3927621053
 31
0.0
  0
LINE
  5
B7
330
74
100
AcDbEntity
  8
0
  6
Continuous
100
AcDbLine
 10
-22.7133102854
 20
-6.3927621053
 30
0.0
 11
-23.9308333483
 21
-6.6561779162
 31
0.0
  0
LINE
  5
B8
330
74
100
AcDbEntity
  8
0
  6
Continuous
100
AcDbLine
 10
-23.9308333483
 20
-6.6561779162
 30
0.0
 11
-23.9305586196
 21
-1.4976668035
 31
0.0
  0
LINE
  5
B9
330
74
100
AcDbEntity
  8
0
  6
Continuous
100
AcDbLine
 10
-23.9305586196
 20
-1.4976668035
 30
0.0
 11
-20.0432683672
 21
-10.0594590717
 31
0.0
  0
SPLINE
  5
BA
330
74
100
AcDbEntity
  8
0
100
AcDbSpline
210
0.0
220
0.0
230
1.0
 70
     8
 71
     3
 72
     8
 73
     4
 74
     0
 42
0.00000001
 43
0.00000001
 40
0.0
 40
0.0
 40
0.0
 40
0.0
 40
1.0
 40
1.0
 40
1.0
 40
1.0
 10
-13.86994560355125
 20
-6.597454742918429
 30
0.0
 10
-13.88373254946556
 20
-6.53373068413859
 30
0.0
 10
-15.11365515797402
 20
-0.8489574873494021
 30
0.0
 10
-15.79563263740206
 20
2.305574601061459
 30
0.0
  0
SPLINE
  5
BB
330
74
100
AcDbEntity
  8
0
100
AcDbSpline
210
0.0
220
0.0
230
1.0
 70
     8
 71
     3
 72
     8
 73
     4
 74
     0
 42
0.00000001
 43
0.00000001
 40
2.0
 40
2.0
 40
2.0
 40
2.0
 40
3.0
 40
3.0
 40
3.0
 40
3.0
 10
-18.06492886668426
 20
1.814603608696524
 30
0.0
 10
-17.24003965005502
 20
-1.995739949107536
 30
0.0
 10
-15.71186186991051
 20
-9.059523950669432
 30
0.0
 10
-15.69887855542093
 20
-9.119533578677906
 30
0.0
  0
SPLINE
  5
BC
330
74
100
AcDbEntity
  8
0
100
AcDbSpline
210
0.0
220
0.0
230
1.0
 70
     8
 71
     3
 72
     8
 73
     4
 74
     0
 42
0.00000001
 43
0.00000001
 40
0.0
 40
0.0
 40
0.0
 40
0.0
 40
1.0
 40
1.0
 40
1.0
 40
1.0
 10
-6.809537646582547
 20
-5.069709977697404
 30
0.0
 10
-7.284290309572815
 20
-2.875375801708635
 30
0.0
 10
-7.897830097865885
 20
-0.0390758678013329
 30
0.0
 10
-8.296070930952649
 20
1.80204897196991
 30
0.0
  0
SPLINE
  5
BD
330
74
100
AcDbEntity
  8
0
100
AcDbSpline
210
0.0
220
0.0
230
1.0
 70
     8
 71
     3
 72
     8
 73
     4
 74
     0
 42
0.00000001
 43
0.00000001
 40
2.0
 40
2.0
 40
2.0
 40
2.0
 40
3.0
 40
3.0
 40
3.0
 40
3.0
 10
-6.919811195494074
 20
2.099808074263809
 30
0.0
 10
-6.228016878711183
 20
2.249480443098069
 30
0.0
 10
-5.547633595833446
 20
1.815851349115847
 30
0.0
 10
-5.399398884916104
 20
1.130701970100344
 30
0.0
  0
SPLINE
  5
BE
330
74
100
AcDbEntity
  8
0
100
AcDbSpline
210
0.0
220
0.0
230
1.0
 70
     8
 71
     3
 72
     8
 73
     4
 74
     0
 42
0.00000001
 43
0.00000001
 40
3.0
 40
3.0
 40
3.0
 40
3.0
 40
4.0
 40
4.0
 40
4.0
 40
4.0
 10
-5.399398884916104
 20
1.130701970100344
 30
0.0
 10
-5.107009087764085
 20
-0.2207405274728672
 30
0.0
 10
-4.711497421058354
 20
-2.048334586467611
 30
0.0
 10
-4.449160707297047
 20
-3.260870000165379
 30
0.0
  0
SPLINE
  5
BF
330
74
100
AcDbEntity
  8
0
100
AcDbSpline
210
0.0
220
0.0
230
1.0
 70
     8
 71
     3
 72
     8
 73
     4
 74
     0
 42
0.00000001
 43
0.00000001
 40
4.0
 40
4.0
 40
4.0
 40
4.0
 40
5.0
 40
5.0
 40
5.0
 40
5.0
 10
-4.449160707297047
 20
-3.260870000165379
 30
0.0
 10
-4.300905507193207
 20
-3.946114081381999
 30
0.0
 10
-4.741570606399121
 20
-4.622385452066122
 30
0.0
 10
-5.433383135791953
 20
-4.771973641166296
 30
0.0
  0
SPLINE
  5
C0
330
74
100
AcDbEntity
  8
0
100
AcDbSpline
210
0.0
220
0.0
230
1.0
 70
     8
 71
     3
 72
     8
 73
     4
 74
     0
 42
0.00000001
 43
0.00000001
 40
3.0
 40
3.0
 40
3.0
 40
3.0
 40
4.0
 40
4.0
 40
4.0
 40
4.0
 10
-4.494024550545999
 20
-6.695320195210662
 30
0.0
 10
-2.825524345390513
 20
-6.334333740063992
 30
0.0
 10
-1.762658323115034
 20
-4.702068307882374
 30
0.0
 10
-2.120071189640999
 20
-3.049576315093403
 30
0.0
  0
SPLINE
  5
C1
330
74
100
AcDbEntity
  8
0
100
AcDbSpline
210
0.0
220
0.0
230
1.0
 70
     8
 71
     3
 72
     8
 73
     4
 74
     0
 42
0.00000001
 43
0.00000001
 40
4.0
 40
4.0
 40
4.0
 40
4.0
 40
5.0
 40
5.0
 40
5.0
 40
5.0
 10
-2.120071189640999
 20
-3.049576315093403
 30
0.0
 10
-2.485983017556096
 20
-1.358310753073632
 30
0.0
 10
-2.867352798370483
 20
0.4044023583376265
 30
0.0
 10
-3.190995488197396
 20
1.900704823656681
 30
0.0
  0
SPLINE
  5
C2
330
74
100
AcDbEntity
  8
0
100
AcDbSpline
210
0.0
220
0.0
230
1.0
 70
     8
 71
     3
 72
     8
 73
     4
 74
     0
 42
0.00000001
 43
0.00000001
 40
5.0
 40
5.0
 40
5.0
 40
5.0
 40
6.0
 40
6.0
 40
6.0
 40
6.0
 10
-3.190995488197396
 20
1.900704823656681
 30
0.0
 10
-3.54857504695031
 20
3.553458157285876
 30
0.0
 10
-5.190901218780231
 20
4.599949148191988
 30
0.0
 10
-6.859585567104196
 20
4.238922852960538
 30
0.0
  0
SPLINE
  5
C3
330
74
100
AcDbEntity
  8
0
100
AcDbSpline
210
0.0
220
0.0
230
1.0
 70
     8
 71
     3
 72
     8
 73
     4
 74
     0
 42
0.00000001
 43
0.00000001
 40
0.0
 40
0.0
 40
0.0
 40
0.0
 40
1.0
 40
1.0
 40
1.0
 40
1.0
 10
-30.23703582864644
 20
-6.251438951366732
 30
0.0
 10
-30.9104300186728
 20
-6.015603382360459
 30
0.0
 10
-31.40848551125485
 20
-5.893156856121871
 30
0.0
 10
-32.67210357750635
 20
-5.496689523479785
 30
0.0
  0
SPLINE
  5
C4
330
74
100
AcDbEntity
  8
0
100
AcDbSpline
210
0.0
220
0.0
230
1.0
 70
     8
 71
     3
 72
     8
 73
     4
 74
     0
 42
0.00000001
 43
0.00000001
 40
1.0
 40
1.0
 40
1.0
 40
1.0
 40
2.0
 40
2.0
 40
2.0
 40
2.0
 10
-32.67210357750635
 20
-5.496689523479785
 30
0.0
 10
-33.03332194555517
 20
-5.383421617718132
 30
0.0
 10
-33.81210282496122
 20
-5.206692347750555
 30
0.0
 10
-33.94849250952588
 20
-4.576291363356936
 30
0.0
  0
SPLINE
  5
C5
330
74
100
AcDbEntity
  8
0
100
AcDbSpline
210
0.0
220
0.0
230
1.0
 70
     8
 71
     3
 72
     8
 73
     4
 74
     0
 42
0.00000001
 43
0.00000001
 40
2.0
 40
2.0
 40
2.0
 40
2.0
 40
3.0
 40
3.0
 40
3.0
 40
3.0
 10
-33.94849250952588
 20
-4.576291363356936
 30
0.0
 10
-34.11622381965225
 20
-3.801027578894063
 30
0.0
 10
-33.67528356585564
 20
-3.448097454184924
 30
0.0
 10
-32.99335932290604
 20
-3.30056051389548
 30
0.0
  0
SPLINE
  5
C6
330
74
100
AcDbEntity
  8
0
100
AcDbSpline
210
0.0
220
0.0
230
1.0
 70
     8
 71
     3
 72
     8
 73
     4
 74
     0
 42
0.00000001
 43
0.00000001
 40
4.0
 40
4.0
 40
4.0
 40
4.0
 40
5.0
 40
5.0
 40
5.0
 40
5.0
 10
-32.85916630414497
 20
-3.271527336675416
 30
0.0
 10
-32.2786944245911
 20
-3.14594000653005
 30
0.0
 10
-31.77109773641243
 20
-3.328116480283148
 30
0.0
 10
-31.56977211870437
 20
-3.967820152272103
 30
0.0
  0
SPLINE
  5
C7
330
74
100
AcDbEntity
  8
0
100
AcDbSpline
210
0.0
220
0.0
230
1.0
 70
     8
 71
     3
 72
     8
 73
     4
 74
     0
 42
0.00000001
 43
0.00000001
 40
6.0
 40
6.0
 40
6.0
 40
6.0
 40
7.0
 40
7.0
 40
7.0
 40
7.0
 10
-29.29695612428625
 20
-3.476087645143529
 30
0.0
 10
-29.68810071971012
 20
-1.866802583842748
 30
0.0
 10
-30.87776107222441
 20
-0.7599478056671497
 30
0.0
 10
-33.27949204955325
 20
-1.266772121690862
 30
0.0
  0
SPLINE
  5
C8
330
74
100
AcDbEntity
  8
0
100
AcDbSpline
210
0.0
220
0.0
230
1.0
 70
     8
 71
     3
 72
     8
 73
     4
 74
     0
 42
0.00000001
 43
0.00000001
 40
8.0
 40
8.0
 40
8.0
 40
8.0
 40
9.0
 40
9.0
 40
9.0
 40
9.0
 10
-33.34488391931659
 20
-1.280919904944554
 30
0.0
 10
-35.81152992452102
 20
-1.828202838410209
 30
0.0
 10
-36.33378487826545
 20
-3.54465012997844
 30
0.0
 10
-36.09207577942843
 20
-4.962606301827474
 30
0.0
  0
SPLINE
  5
C9
330
74
100
AcDbEntity
  8
0
100
AcDbSpline
210
0.0
220
0.0
230
1.0
 70
     8
 71
     3
 72
     8
 73
     4
 74
     0
 42
0.00000001
 43
0.00000001
 40
9.0
 40
9.0
 40
9.0
 40
9.0
 40
10.0
 40
10.0
 40
10.0
 40
10.0
 10
-36.09207577942843
 20
-4.962606301827474
 30
0.0
 10
-35.83736690020325
 20
-6.457652824126185
 30
0.0
 10
-34.96800490008025
 20
-7.196828812263726
 30
0.0
 10
-33.99931718292642
 20
-7.502708028683521
 30
0.0
  0
SPLINE
  5
CA
330
74
100
AcDbEntity
  8
0
100
AcDbSpline
210
0.0
220
0.0
230
1.0
 70
     8
 71
     3
 72
     8
 73
     4
 74
     0
 42
0.00000001
 43
0.00000001
 40
10.0
 40
10.0
 40
10.0
 40
10.0
 40
11.0
 40
11.0
 40
11.0
 40
11.0
 10
-33.99931718292642
 20
-7.502708028683521
 30
0.0
 10
-33.40907414696034
 20
-7.689011641945549
 30
0.0
 10
-32.48616403135102
 20
-7.975318844696811
 30
0.0
 10
-31.47547483016511
 20
-8.271505052332133
 30
0.0
  0
SPLINE
  5
CB
330
74
100
AcDbEntity
  8
0
100
AcDbSpline
210
0.0
220
0.0
230
1.0
 70
     8
 71
     3
 72
     8
 73
     4
 74
     0
 42
0.00000001
 43
0.00000001
 40
11.0
 40
11.0
 40
11.0
 40
11.0
 40
12.0
 40
12.0
 40
12.0
 40
12.0
 10
-31.47547483016511
 20
-8.271505052332133
 30
0.0
 10
-31.11213516930565
 20
-8.377980375833697
 30
0.0
 10
-30.40258052645035
 20
-8.55729511966404
 30
0.0
 10
-30.28870163819746
 20
-9.336631754491275
 30
0.0
  0
SPLINE
  5
CC
330
74
100
AcDbEntity
  8
0
100
AcDbSpline
210
0.0
220
0.0
230
1.0
 70
     8
 71
     3
 72
     8
 73
     4
 74
     0
 42
0.00000001
 43
0.00000001
 40
12.0
 40
12.0
 40
12.0
 40
12.0
 40
13.0
 40
13.0
 40
13.0
 40
13.0
 10
-30.28870163819746
 20
-9.336631754491275
 30
0.0
 10
-30.1883718252622
 20
-10.02498578462436
 30
0.0
 10
-30.64014408852681
 20
-10.43662327702193
 30
0.0
 10
-31.32890793487913
 20
-10.58563999188937
 30
0.0
  0
SPLINE
  5
CD
330
74
100
AcDbEntity
  8
0
100
AcDbSpline
210
0.0
220
0.0
230
1.0
 70
     8
 71
     3
 72
     8
 73
     4
 74
     0
 42
0.00000001
 43
0.00000001
 40
14.0
 40
14.0
 40
14.0
 40
14.0
 40
15.0
 40
15.0
 40
15.0
 40
15.0
 10
-31.46505813246006
 20
-10.61509661229636
 30
0.0
 10
-32.05208024758041
 20
-10.74210111117219
 30
0.0
 10
-32.71260096537058
 20
-10.55064660173623
 30
0.0
 10
-32.8822392924921
 20
-9.937760156430087
 30
0.0
  0
SPLINE
  5
CE
330
74
100
AcDbEntity
  8
0
100
AcDbSpline
210
0.0
220
0.0
230
1.0
 70
     8
 71
     3
 72
     8
 73
     4
 74
     0
 42
0.00000001
 43
0.00000001
 40
16.0
 40
16.0
 40
16.0
 40
16.0
 40
17.0
 40
17.0
 40
17.0
 40
17.0
 10
-35.1888692338865
 20
-10.43680844141459
 30
0.0
 10
-34.81471685749703
 20
-11.8843133271045
 30
0.0
 10
-33.72975075395794
 20
-12.95131992706823
 30
0.0
 10
-31.59496833044066
 20
-12.72957879515504
 30
0.0
  0
SPLINE
  5
CF
330
74
100
AcDbEntity
  8
0
100
AcDbSpline
210
0.0
220
0.0
230
1.0
 70
     8
 71
     3
 72
     8
 73
     4
 74
     0
 42
0.00000001
 43
0.00000001
 40
18.0
 40
18.0
 40
18.0
 40
18.0
 40
19.0
 40
19.0
 40
19.0
 40
19.0
 10
-30.20639204762402
 20
-12.42915496033268
 30
0.0
 10
-28.36320980349184
 20
-11.79454394754582
 30
0.0
 10
-27.78707037380765
 20
-10.41512978795686
 30
0.0
 10
-27.91988511866083
 20
-9.073464993912006
 30
0.0
  0
SPLINE
  5
D0
330
74
100
AcDbEntity
  8
0
100
AcDbSpline
210
0.0
220
0.0
230
1.0
 70
     8
 71
     3
 72
     8
 73
     4
 74
     0
 42
0.00000001
 43
0.00000001
 40
19.0
 40
19.0
 40
19.0
 40
19.0
 40
20.0
 40
20.0
 40
20.0
 40
20.0
 10
-27.91988511866083
 20
-9.073464993912006
 30
0.0
 10
-28.12563217330358
 20
-6.994152508733083
 30
0.0
 10
-29.51271678483619
 20
-6.50510505043454
 30
0.0
 10
-30.23703582864644
 20
-6.251438951366732
 30
0.0
  0
HATCH
  5
D1
330
74
100
AcDbEntity
  8
0
100
AcDbHatch
 10
0.0
 20
0.0
 30
0.0
210
0.0
220
0.0
230
1.0
  2
SOLID
 70
     1
 71
     0
 91
        1
 92
        0
 93
        7
 72
     1
 10
-53.06293521179145
 20
-11.48017794540906
 11
-53.0628942334185
 21
-11.48036734981106
 72
     1
 10
-53.0628942334185
 20
-11.48036734981106
 11
-50.18135879739363
 21
-10.85693604353014
 72
     1
 10
-50.18135879739363
 20
-10.85693604353014
 11
-47.91273279754322
 21
-7.399227366744369
 72
     1
 10
-47.91273279754322
 20
-7.399227366744369
 11
-51.40738209617635
 21
-5.188811056417426
 72
     1
 10
-51.40738209617635
 20
-5.188811056417426
 11
-54.28910693660305
 21
-5.812283341071309
 72
     1
 10
-54.28910693660305
 20
-5.812283341071309
 11
-50.79453412756107
 21
-8.022804320319173
 72
     1
 10
-50.79453412756107
 20
-8.022804320319173
 11
-53.06293521179145
 21
-11.48017794540906
 97
        0
 75
     0
 76
     1
 98
        1
 10
0.0
 20
0.0
  0
HATCH
  5
D2
330
74
100
AcDbEntity
  8
0
100
AcDbHatch
 10
0.0
 20
0.0
 30
0.0
210
0.0
220
0.0
230
1.0
  2
SOLID
 70
     1
 71
     0
 91
        1
 92
        0
 93
        6
 72
     1
 10
-41.53588964704281
 20
-8.986455445432597
 11
-44.41771445090438
 21
-9.609949357561213
 72
     1
 10
-44.41771445090438
 20
-9.609949357561213
 11
-46.68624347197728
 21
-13.06764806762683
 72
     1
 10
-46.68624347197728
 20
-13.06764806762683
 11
-43.23827248082917
 21
-15.24865255879992
 72
     1
 10
-43.23827248082917
 20
-15.24865255879992
 11
-40.35645293820115
 21
-14.62515978495947
 72
     1
 10
-40.35645293820115
 20
-14.62515978495947
 11
-43.80454139731328
 21
-12.44407055830516
 72
     1
 10
-43.80454139731328
 20
-12.44407055830516
 11
-41.53588964704281
 21
-8.986455445432597
 97
        0
 75
     0
 76
     1
 98
        1
 10
0.0
 20
0.0
  0
HATCH
  5
D3
330
74
100
AcDbEntity
  8
0
100
AcDbHatch
 10
0.0
 20
0.0
 30
0.0
210
0.0
220
0.0
230
1.0
  2
SOLID
 70
     1
 71
     0
 91
        1
 92
        0
 93
       20
 72
     4
 94
        3
 73
     1
 74
     0
 95
        8
 96
        4
 40
18.0
 40
18.0
 40
18.0
 40
18.0
 40
19.0
 40
19.0
 40
19.0
 40
19.0
 10
-30.20639204762402
 20
-12.42915496033267
 42
1.0
 10
-28.36320980349188
 20
-11.79454394754584
 42
1.0
 10
-27.78707037380775
 20
-10.41512978795687
 42
1.0
 10
-27.91988511866085
 20
-9.073464993912015
 42
1.0
 72
     4
 94
        3
 73
     1
 74
     0
 95
        8
 96
        4
 40
19.0
 40
19.0
 40
19.0
 40
19.0
 40
20.0
 40
20.0
 40
20.0
 40
20.0
 10
-27.91988511866085
 20
-9.073464993912015
 42
1.0
 10
-28.1256321733036
 20
-6.994152508733093
 42
1.0
 10
-29.51271678483624
 20
-6.505105050434554
 42
1.0
 10
-30.23703582864647
 20
-6.251438951366739
 42
1.0
 72
     4
 94
        3
 73
     1
 74
     0
 95
        8
 96
        4
 40
0.0
 40
0.0
 40
0.0
 40
0.0
 40
1.0
 40
1.0
 40
1.0
 40
1.0
 10
-30.23703582864647
 20
-6.251438951366739
 42
1.0
 10
-30.91043001867278
 20
-6.015603382360466
 42
1.0
 10
-31.40848551125484
 20
-5.893156856121866
 42
1.0
 10
-32.67210357750633
 20
-5.496689523479784
 42
1.0
 72
     4
 94
        3
 73
     1
 74
     0
 95
        8
 96
        4
 40
1.0
 40
1.0
 40
1.0
 40
1.0
 40
2.0
 40
2.0
 40
2.0
 40
2.0
 10
-32.67210357750633
 20
-5.496689523479784
 42
1.0
 10
-33.03332194555515
 20
-5.383421617718138
 42
1.0
 10
-33.81210282496121
 20
-5.206692347750558
 42
1.0
 10
-33.94849250952591
 20
-4.576291363356954
 42
1.0
 72
     4
 94
        3
 73
     1
 74
     0
 95
        8
 96
        4
 40
2.0
 40
2.0
 40
2.0
 40
2.0
 40
3.0
 40
3.0
 40
3.0
 40
3.0
 10
-33.94849250952591
 20
-4.576291363356954
 42
1.0
 10
-34.11622381965228
 20
-3.801027578894066
 42
1.0
 10
-33.67528356585566
 20
-3.448097454184939
 42
1.0
 10
-32.99335932290605
 20
-3.300560513895483
 42
1.0
 72
     1
 10
-32.99335932290605
 20
-3.300560513895483
 11
-32.85916630414502
 21
-3.271527336675422
 72
     4
 94
        3
 73
     1
 74
     0
 95
        8
 96
        4
 40
4.0
 40
4.0
 40
4.0
 40
4.0
 40
5.0
 40
5.0
 40
5.0
 40
5.0
 10
-32.85916630414502
 20
-3.271527336675422
 42
1.0
 10
-32.27869442459117
 20
-3.145940006530068
 42
1.0
 10
-31.77109773641243
 20
-3.328116480283154
 42
1.0
 10
-31.5697721187044
 20
-3.967820152272114
 42
1.0
 72
     1
 10
-31.5697721187044
 20
-3.967820152272114
 11
-29.29695612428624
 21
-3.476087645143523
 72
     4
 94
        3
 73
     1
 74
     0
 95
        8
 96
        4
 40
6.0
 40
6.0
 40
6.0
 40
6.0
 40
7.0
 40
7.0
 40
7.0
 40
7.0
 10
-29.2969561242863
 20
-3.476087645143538
 42
1.0
 10
-29.6881007197101
 20
-1.866802583842747
 42
1.0
 10
-30.87776107222446
 20
-0.7599478056671519
 42
1.0
 10
-33.27949204955327
 20
-1.266772121690873
 42
1.0
 72
     1
 10
-33.27949204955321
 20
-1.266772121690857
 11
-33.3448839193166
 21
-1.280919904944549
 72
     4
 94
        3
 73
     1
 74
     0
 95
        8
 96
        4
 40
8.0
 40
8.0
 40
8.0
 40
8.0
 40
9.0
 40
9.0
 40
9.0
 40
9.0
 10
-33.34488391931666
 20
-1.280919904944565
 42
1.0
 10
-35.8115299245211
 20
-1.828202838410234
 42
1.0
 10
-36.3337848782655
 20
-3.544650129978449
 42
1.0
 10
-36.09207577942846
 20
-4.962606301827486
 42
1.0
 72
     4
 94
        3
 73
     1
 74
     0
 95
        8
 96
        4
 40
9.0
 40
9.0
 40
9.0
 40
9.0
 40
10.0
 40
10.0
 40
10.0
 40
10.0
 10
-36.09207577942846
 20
-4.962606301827486
 42
1.0
 10
-35.83736690020323
 20
-6.457652824126184
 42
1.0
 10
-34.96800490008029
 20
-7.196828812263736
 42
1.0
 10
-33.99931718292643
 20
-7.502708028683525
 42
1.0
 72
     4
 94
        3
 73
     1
 74
     0
 95
        8
 96
        4
 40
10.0
 40
10.0
 40
10.0
 40
10.0
 40
11.0
 40
11.0
 40
11.0
 40
11.0
 10
-33.99931718292643
 20
-7.502708028683525
 42
1.0
 10
-33.40907414696031
 20
-7.689011641945555
 42
1.0
 10
-32.48616403135106
 20
-7.975318844696822
 42
1.0
 10
-31.47547483016516
 20
-8.27150505233215
 42
1.0
 72
     4
 94
        3
 73
     1
 74
     0
 95
        8
 96
        4
 40
11.0
 40
11.0
 40
11.0
 40
11.0
 40
12.0
 40
12.0
 40
12.0
 40
12.0
 10
-31.47547483016516
 20
-8.27150505233215
 42
1.0
 10
-31.11213516930568
 20
-8.377980375833708
 42
1.0
 10
-30.40258052645039
 20
-8.557295119664056
 42
1.0
 10
-30.28870163819752
 20
-9.336631754491272
 42
1.0
 72
     4
 94
        3
 73
     1
 74
     0
 95
        8
 96
        4
 40
12.0
 40
12.0
 40
12.0
 40
12.0
 40
13.0
 40
13.0
 40
13.0
 40
13.0
 10
-30.28870163819752
 20
-9.336631754491272
 42
1.0
 10
-30.18837182526216
 20
-10.02498578462435
 42
1.0
 10
-30.64014408852681
 20
-10.43662327702195
 42
1.0
 10
-31.32890793487914
 20
-10.58563999188937
 42
1.0
 72
     1
 10
-31.32890793487914
 20
-10.58563999188937
 11
-31.46505813246008
 21
-10.61509661229637
 72
     4
 94
        3
 73
     1
 74
     0
 95
        8
 96
        4
 40
14.0
 40
14.0
 40
14.0
 40
14.0
 40
15.0
 40
15.0
 40
15.0
 40
15.0
 10
-31.46505813246008
 20
-10.61509661229637
 42
1.0
 10
-32.05208024758041
 20
-10.7421011111722
 42
1.0
 10
-32.71260096537064
 20
-10.55064660173623
 42
1.0
 10
-32.88223929249212
 20
-9.937760156430087
 42
1.0
 72
     1
 10
-32.88223929249212
 20
-9.937760156430087
 11
-35.18886923388655
 21
-10.43680844141459
 72
     4
 94
        3
 73
     1
 74
     0
 95
        8
 96
        4
 40
16.0
 40
16.0
 40
16.0
 40
16.0
 40
17.0
 40
17.0
 40
17.0
 40
17.0
 10
-35.18886923388649
 20
-10.43680844141459
 42
1.0
 10
-34.81471685749708
 20
-11.88431332710451
 42
1.0
 10
-33.72975075395801
 20
-12.95131992706824
 42
1.0
 10
-31.59496833044075
 20
-12.72957879515506
 42
1.0
 72
     1
 10
-31.59496833044068
 20
-12.72957879515504
 11
-30.20639204762409
 21
-12.42915496033269
 97
        0
 75
     0
 76
     1
 98
        1
 10
0.0
 20
0.0
  0
HATCH
  5
D4
330
74
100
AcDbEntity
  8
0
100
AcDbHatch
 10
0.0
 20
0.0
 30
0.0
210
0.0
220
0.0
230
1.0
  2
SOLID
 70
     1
 71
     0
 91
        1
 92
        0
 93
       11
 72
     1
 10
-23.93083334830058
 20
-6.656177916224847
 11
-23.9305586195879
 21
-1.497666803489873
 72
     1
 10
-23.9305586195879
 20
-1.497666803489873
 11
-20.04326836721582
 21
-10.05945907169815
 72
     1
 10
-20.04326836721582
 20
-10.05945907169815
 11
-17.66870538033285
 21
-9.545713210289948
 72
     1
 10
-17.66870538033285
 20
-9.545713210289948
 11
-22.39983793591613
 21
0.8767293108990284
 72
     1
 10
-22.39983793591613
 20
0.8767293108990277
 11
-26.30586704316552
 21
0.0316448471579831
 72
     1
 10
-26.30586704316552
 20
0.0316448471579831
 11
-26.30567237753049
 21
-11.41435433475813
 72
     1
 10
-26.30567237753049
 20
-11.41435433475813
 11
-23.93111465188077
 21
-10.90060961163804
 72
     1
 10
-23.93111465188077
 20
-10.90060961163804
 11
-23.93099314235586
 21
-8.782594625323274
 72
     1
 10
-23.93099314235586
 20
-8.782594625323274
 11
-22.27383089514867
 21
-8.42406118111162
 72
     1
 10
-22.27383089514867
 20
-8.42406118111162
 11
-22.7133102853523
 21
-6.392762105309743
 72
     1
 10
-22.7133102853523
 20
-6.392762105309743
 11
-23.93083334830058
 21
-6.656177916224847
 97
        0
 75
     0
 76
     1
 98
        1
 10
0.0
 20
0.0
  0
HATCH
  5
D5
330
74
100
AcDbEntity
  8
0
100
AcDbHatch
 10
0.0
 20
0.0
 30
0.0
210
0.0
220
0.0
230
1.0
  2
SOLID
 70
     1
 71
     0
 91
        1
 92
        0
 93
        6
 72
     1
 10
-15.79563263740209
 20
2.305574601061446
 11
-18.06492886668423
 21
1.814603608696526
 72
     4
 94
        3
 73
     1
 74
     0
 95
        8
 96
        4
 40
2.0
 40
2.0
 40
2.0
 40
2.0
 40
3.0
 40
3.0
 40
3.0
 40
3.0
 10
-18.06492886668423
 20
1.814603608696526
 42
1.0
 10
-17.240039650055
 20
-1.995739949107533
 42
1.0
 10
-15.71186186991055
 20
-9.059523950669437
 42
1.0
 10
-15.69887855542098
 20
-9.119533578677919
 42
1.0
 72
     1
 10
-15.69887855542092
 20
-9.119533578677903
 11
-10.22610149671526
 21
-7.93547715235816
 72
     1
 10
-10.22610149671526
 20
-7.93547715235816
 11
-10.66558088691882
 21
-5.904178076556605
 72
     1
 10
-10.66558088691882
 20
-5.904178076556605
 11
-13.86994560355126
 21
-6.597454742918437
 72
     4
 94
        3
 73
     1
 74
     0
 95
        8
 96
        4
 40
0.0
 40
0.0
 40
0.0
 40
0.0
 40
1.0
 40
1.0
 40
1.0
 40
1.0
 10
-13.86994560355126
 20
-6.597454742918437
 42
1.0
 10
-13.88373254946556
 20
-6.533730684138598
 42
1.0
 10
-15.1136551579741
 20
-0.8489574873494129
 42
1.0
 10
-15.79563263740209
 20
2.305574601061446
 42
1.0
 97
        0
 75
     0
 76
     1
 98
        1
 10
0.0
 20
0.0
  0
HATCH
  5
D6
330
74
100
AcDbEntity
  8
0
100
AcDbHatch
 10
0.0
 20
0.0
 30
0.0
210
0.0
220
0.0
230
1.0
  2
SOLID
 70
     1
 71
     0
 91
        1
 92
        0
 93
       11
 72
     1
 10
2.375028433631206
 20
-0.9648032523823513
 11
2.375208460142868
 21
4.193687371166118
 72
     1
 10
2.375208460142868
 20
4.193687371166118
 11
6.262509234981617
 21
-4.368102620465918
 72
     1
 10
6.262509234981617
 20
-4.368102620465917
 11
8.637061699398163
 21
-3.854359035633896
 72
     1
 10
8.637061699398163
 20
-3.854359035633896
 11
3.905939666281055
 21
6.568085762131229
 72
     1
 10
3.905939666281055
 20
6.56808576213123
 11
-0.0000000000001235
 21
5.723020649288631
 72
     1
 10
-0.0000000000001234
 20
5.723020649288631
 11
-0.000000000000185
 21
-5.723020649288538
 72
     1
 10
-0.000000000000185
 20
-5.723020649288538
 11
2.37465768908423
 21
-5.20925429869377
 72
     1
 10
2.37465768908423
 20
-5.20925429869377
 11
2.374784459841949
 21
-3.091238174090979
 72
     1
 10
2.374784459841949
 20
-3.091238174090979
 11
4.031830959914354
 21
-2.732729772218408
 72
     1
 10
4.031830959914354
 20
-2.732729772218408
 11
3.592351569710606
 21
-0.701430696416514
 72
     1
 10
3.592351569710606
 20
-0.7014306964165138
 11
2.375028433631206
 21
-0.9648032523823513
 97
        0
 75
     0
 76
     1
 98
        1
 10
0.0
 20
0.0
  0
HATCH
  5
D7
330
74
100
AcDbEntity
  8
0
100
AcDbHatch
 10
0.0
 20
0.0
 30
0.0
210
0.0
220
0.0
230
1.0
  2
SOLID
 70
     1
 71
     0
 91
        1
 92
        0
 93
        8
 72
     1
 10
-42.14906497721024
 20
-6.152323722221632
 11
-42.76219705242848
 21
-3.318391925879333
 72
     1
 10
-42.76219705242848
 20
-3.318391925879333
 11
-42.76249168149826
 21
-3.318455670015027
 72
     1
 10
-42.76249168149826
 20
-3.318455670015027
 11
-45.03079507887072
 21
-6.775797145163721
 72
     1
 10
-45.03079507887072
 20
-6.775797145163721
 11
-48.52545732888054
 21
-4.565295516814268
 72
     1
 10
-48.52545732888054
 20
-4.565295516814268
 11
-48.52574669671678
 21
-4.565358122661792
 72
     1
 10
-48.52574669671678
 20
-4.565358122661792
 11
-47.91261462149855
 21
-7.39928991900409
 72
     1
 10
-47.91261462149855
 20
-7.39928991900409
 11
-44.41773721666716
 21
-9.60984413289331
 72
     1
 10
-44.41773721666716
 20
-9.60984413289331
 11
-42.14906497721024
 21
-6.152323722221632
 97
        0
 75
     0
 76
     1
 98
        1
 10
0.0
 20
0.0
  0
HATCH
  5
D8
330
74
100
AcDbEntity
  8
0
100
AcDbHatch
 10
0.0
 20
0.0
 30
0.0
210
0.0
220
0.0
230
1.0
  2
SOLID
 70
     1
 71
     0
 91
        1
 92
        0
 93
        8
 72
     1
 10
-46.11999732125613
 20
-15.87212484345383
 11
-46.08139565189786
 21
-15.8637732233933
 72
     1
 10
-46.08139565189786
 20
-15.8637732233933
 11
-46.68636620117444
 21
-13.06756447043367
 72
     1
 10
-46.68636620117444
 20
-13.06756447043367
 11
-50.18135879739361
 21
-10.85693604353009
 72
     1
 10
-50.18135879739361
 20
-10.85693604353009
 11
-52.44976215820033
 21
-14.31429914615315
 72
     1
 10
-52.44976215820033
 20
-14.31429914615315
 11
-51.84475063055083
 21
-17.11069730351469
 72
     1
 10
-51.84475063055083
 20
-17.11069730351469
 11
-51.80633836559459
 21
-17.1023866618271
 72
     1
 10
-51.80633836559459
 20
-17.1023866618271
 11
-49.56818574380249
 21
-13.69105724427409
 72
     1
 10
-49.56818574380249
 20
-13.69105724427409
 11
-46.11999732125613
 21
-15.87212484345383
 97
        0
 75
     0
 76
     1
 98
        1
 10
0.0
 20
0.0
  0
HATCH
  5
D9
330
74
100
AcDbEntity
  8
0
100
AcDbHatch
 10
0.0
 20
0.0
 30
0.0
210
0.0
220
0.0
230
1.0
  2
SOLID
 70
     1
 71
     0
 91
        2
 92
        0
 93
        7
 72
     1
 10
-6.859585567104196
 20
4.238922852960538
 11
-11.00449045380928
 21
3.342156692939393
 72
     1
 10
-11.00449045380928
 20
3.342156692939393
 11
-8.638829473816639
 21
-7.592064727757185
 72
     1
 10
-8.638829473816639
 20
-7.592064727757185
 11
-8.63844014254617
 21
-7.591980494435086
 72
     1
 10
-8.63844014254617
 20
-7.591980494435086
 11
-4.494024550545999
 21
-6.695320195210662
 72
     4
 94
        3
 73
     1
 74
     0
 95
        8
 96
        4
 40
3.0
 40
3.0
 40
3.0
 40
3.0
 40
4.0
 40
4.0
 40
4.0
 40
4.0
 10
-4.494024550545999
 20
-6.695320195210662
 42
1.0
 10
-2.825524345390513
 20
-6.334333740063992
 42
1.0
 10
-1.762658323115034
 20
-4.702068307882374
 42
1.0
 10
-2.120071189640999
 20
-3.049576315093403
 42
1.0
 72
     4
 94
        3
 73
     1
 74
     0
 95
        8
 96
        4
 40
4.0
 40
4.0
 40
4.0
 40
4.0
 40
5.0
 40
5.0
 40
5.0
 40
5.0
 10
-2.120071189640999
 20
-3.049576315093403
 42
1.0
 10
-2.485983017556096
 20
-1.358310753073632
 42
1.0
 10
-2.867352798370483
 20
0.4044023583376265
 42
1.0
 10
-3.190995488197396
 20
1.900704823656681
 42
1.0
 72
     4
 94
        3
 73
     1
 74
     0
 95
        8
 96
        4
 40
5.0
 40
5.0
 40
5.0
 40
5.0
 40
6.0
 40
6.0
 40
6.0
 40
6.0
 10
-3.190995488197396
 20
1.900704823656681
 42
1.0
 10
-3.54857504695031
 20
3.553458157285876
 42
1.0
 10
-5.190901218780231
 20
4.599949148191988
 42
1.0
 10
-6.859585567104196
 20
4.238922852960538
 42
1.0
 97
        0
 92
        0
 93
        6
 72
     4
 94
        3
 73
     1
 74
     0
 95
        8
 96
        4
 40
2.0
 40
2.0
 40
2.0
 40
2.0
 40
3.0
 40
3.0
 40
3.0
 40
3.0
 10
-6.919811195494074
 20
2.099808074263809
 42
1.0
 10
-6.228016878711183
 20
2.249480443098069
 42
1.0
 10
-5.547633595833446
 20
1.815851349115847
 42
1.0
 10
-5.399398884916104
 20
1.130701970100344
 42
1.0
 72
     4
 94
        3
 73
     1
 74
     0
 95
        8
 96
        4
 40
3.0
 40
3.0
 40
3.0
 40
3.0
 40
4.0
 40
4.0
 40
4.0
 40
4.0
 10
-5.399398884916104
 20
1.130701970100344
 42
1.0
 10
-5.107009087764085
 20
-0.2207405274728672
 42
1.0
 10
-4.711497421058354
 20
-2.048334586467611
 42
1.0
 10
-4.449160707297047
 20
-3.260870000165379
 42
1.0
 72
     4
 94
        3
 73
     1
 74
     0
 95
        8
 96
        4
 40
4.0
 40
4.0
 40
4.0
 40
4.0
 40
5.0
 40
5.0
 40
5.0
 40
5.0
 10
-4.449160707297047
 20
-3.260870000165379
 42
1.0
 10
-4.300905507193207
 20
-3.946114081381999
 42
1.0
 10
-4.741570606399121
 20
-4.622385452066122
 42
1.0
 10
-5.433383135791953
 20
-4.771973641166296
 42
1.0
 72
     1
 10
-5.433383135791953
 20
-4.771973641166296
 11
-6.809537646582547
 21
-5.069709977697404
 72
     4
 94
        3
 73
     1
 74
     0
 95
        8
 96
        4
 40
0.0
 40
0.0
 40
0.0
 40
0.0
 40
1.0
 40
1.0
 40
1.0
 40
1.0
 10
-6.809537646582547
 20
-5.069709977697404
 42
1.0
 10
-7.284290309572815
 20
-2.875375801708635
 42
1.0
 10
-7.897830097865885
 20
-0.0390758678013329
 42
1.0
 10
-8.296070930952649
 20
1.80204897196991
 42
1.0
 72
     1
 10
-8.296070930952649
 20
1.80204897196991
 11
-6.919811195494074
 21
2.099808074263809
 97
        0
 75
     0
 76
     1
 98
        1
 10
0.0
 20
0.0
  0
ENDBLK
  5
76
330
74
100
AcDbEntity
  8
0
100
AcDbBlockEnd
  0
ENDSEC
  0
SECTION
  2
ENTITIES
  0
LINE
  5
DA
330
1F
100
AcDbEntity
  8
0
100
AcDbLine
 10
238.9649262905
 20
-119.954043535
 30
0.0
 11
238.9649262905
 21
-117.954043535
 31
0.0
  0
LINE
  5
DB
330
1F
100
AcDbEntity
  8
0
100
AcDbLine
 10
-90.0350737095
 20
-117.954043535
 30
0.0
 11
-90.0350737095
 21
-119.954043535
 31
0.0
  0
LINE
  5
DC
330
1F
100
AcDbEntity
  8
0
100
AcDbLine
 10
230.9649262905
 20
-117.954043535
 30
0.0
 11
230.9649262905
 21
-113.954043535
 31
0.0
  0
LINE
  5
DD
330
1F
100
AcDbEntity
  8
0
100
AcDbLine
 10
-82.0350737095
 20
-113.954043535
 30
0.0
 11
-82.0350737095
 21
-117.954043535
 31
0.0
  0
LINE
  5
DE
330
1F
100
AcDbEntity
  8
0
100
AcDbLine
 10
230.9649262905
 20
-123.954043535
 30
0.0
 11
230.9649262905
 21
-119.954043535
 31
0.0
  0
LINE
  5
DF
330
1F
100
AcDbEntity
  8
0
100
AcDbLine
 10
-82.0350737095
 20
-119.954043535
 30
0.0
 11
-82.0350737095
 21
-123.954043535
 31
0.0
  0
ARC
  5
E0
330
1F
100
AcDbEntity
  8
0
100
AcDbCircle
 10
229.5328754829
 20
-86.5624190778
 30
0.0
 40
2.629614255094548
100
AcDbArc
 50
337.6487299793
 51
22.3512700207
  0
ARC
  5
E1
330
1F
100
AcDbEntity
  8
0
100
AcDbCircle
 10
-80.6030229019
 20
-86.5624190778
 30
0.0
 40
2.629614255094567
100
AcDbArc
 50
157.6487299793
 51
202.3512700207
  0
LINE
  5
E2
330
1F
100
AcDbEntity
  8
0
100
AcDbLine
 10
231.9649262905
 20
-85.5624190778
 30
0.0
 11
231.9649262905
 21
-38.654043535
 31
0.0
  0
LINE
  5
E3
330
1F
100
AcDbEntity
  8
0
100
AcDbLine
 10
-83.0350737095
 20
-38.654043535
 30
0.0
 11
-83.0350737095
 21
-85.5624190778
 31
0.0
  0
LINE
  5
E4
330
1F
100
AcDbEntity
  8
0
100
AcDbLine
 10
231.9649262905
 20
-110.954043535
 30
0.0
 11
231.9649262905
 21
-87.5624190778
 31
0.0
  0
LINE
  5
E5
330
1F
100
AcDbEntity
  8
0
100
AcDbLine
 10
-83.0350737095
 20
-87.5624190778
 30
0.0
 11
-83.0350737095
 21
-110.954043535
 31
0.0
  0
LINE
  5
E6
330
1F
100
AcDbEntity
  8
0
100
AcDbLine
 10
-83.0350737095
 20
-110.954043535
 30
0.0
 11
-80.0350737095
 21
-113.954043535
 31
0.0
  0
LINE
  5
E7
330
1F
100
AcDbEntity
  8
0
100
AcDbLine
 10
228.9649262905
 20
-113.954043535
 30
0.0
 11
231.9649262905
 21
-110.954043535
 31
0.0
  0
LINE
  5
E8
330
1F
100
AcDbEntity
  8
0
100
AcDbLine
 10
231.9649262905
 20
-131.954043535
 30
0.0
 11
231.9649262905
 21
-126.954043535
 31
0.0
  0
LINE
  5
E9
330
1F
100
AcDbEntity
  8
0
100
AcDbLine
 10
-83.0350737095
 20
-126.954043535
 30
0.0
 11
-83.0350737095
 21
-131.954043535
 31
0.0
  0
LINE
  5
EA
330
1F
100
AcDbEntity
  8
0
100
AcDbLine
 10
-83.0350737095
 20
-131.954043535
 30
0.0
 11
-80.0350737095
 21
-135.954043535
 31
0.0
  0
LINE
  5
EB
330
1F
100
AcDbEntity
  8
0
100
AcDbLine
 10
228.9649262905
 20
-135.954043535
 30
0.0
 11
231.9649262905
 21
-131.954043535
 31
0.0
  0
LINE
  5
EC
330
1F
100
AcDbEntity
  8
0
100
AcDbLine
 10
231.9649262905
 20
-126.954043535
 30
0.0
 11
228.9649262905
 21
-123.954043535
 31
0.0
  0
LINE
  5
ED
330
1F
100
AcDbEntity
  8
0
100
AcDbLine
 10
-80.0350737095
 20
-123.954043535
 30
0.0
 11
-83.0350737095
 21
-126.954043535
 31
0.0
  0
LINE
  5
EE
330
1F
100
AcDbEntity
  8
0
100
AcDbLine
 10
-196.877658533
 20
246.645956465
 30
0.0
 11
-119.4523953751
 21
-36.254043535
 31
0.0
  0
LINE
  5
EF
330
1F
100
AcDbEntity
  8
0
100
AcDbLine
 10
268.3822479561
 20
-36.254043535
 30
0.0
 11
345.807511114
 21
246.645956465
 31
0.0
  0
ARC
  5
F0
330
1F
100
AcDbEntity
  8
0
100
AcDbCircle
 10
273.4649262905
 20
-37.454043535
 30
0.0
 40
1.20000000000001
100
AcDbArc
 50
270.0
 51
90.0
  0
ARC
  5
F1
330
1F
100
AcDbEntity
  8
0
100
AcDbCircle
 10
-124.5350737095
 20
-37.454043535
 30
0.0
 40
1.20000000000001
100
AcDbArc
 50
90.0
 51
270.0
  0
ARC
  5
F2
330
1F
100
AcDbEntity
  8
0
100
AcDbCircle
 10
352.4299262905
 20
247.695956465
 30
0.0
 40
1.050000000000011
100
AcDbArc
 50
269.9999999999
 51
90.0000000001
  0
ARC
  5
F3
330
1F
100
AcDbEntity
  8
0
100
AcDbCircle
 10
-203.5000737095
 20
247.695956465
 30
0.0
 40
1.049999999999983
100
AcDbArc
 50
89.9999999999
 51
270.0000000001
  0
LINE
  5
F4
330
1F
100
AcDbEntity
  8
0
100
AcDbLine
 10
346.4299262905
 20
248.745956465
 30
0.0
 11
233.0149262905
 21
533.745956465
 31
0.0
  0
LINE
  5
F5
330
1F
100
AcDbEntity
  8
0
100
AcDbLine
 10
-84.0850737095
 20
533.745956465
 30
0.0
 11
-197.5000737095
 21
248.745956465
 31
0.0
  0
LINE
  5
F6
330
1F
100
AcDbEntity
  8
0
100
AcDbLine
 10
239.0149262905
 20
533.745956465
 30
0.0
 11
239.0149262905
 21
534.445956465
 31
0.0
  0
LINE
  5
F7
330
1F
100
AcDbEntity
  8
0
100
AcDbLine
 10
-90.0850737095
 20
534.445956465
 30
0.0
 11
-90.0850737095
 21
533.745956465
 31
0.0
  0
LINE
  5
F8
330
1F
100
AcDbEntity
  8
0
100
AcDbLine
 10
238.9649262905
 20
-119.954043535
 30
0.0
 11
-90.0350737095
 21
-119.954043535
 31
0.0
  0
LINE
  5
F9
330
1F
100
AcDbEntity
  8
0
100
AcDbLine
 10
238.9649262905
 20
-117.954043535
 30
0.0
 11
-90.0350737095
 21
-117.954043535
 31
0.0
  0
LINE
  5
FA
330
1F
100
AcDbEntity
  8
0
100
AcDbLine
 10
230.9649262905
 20
-113.954043535
 30
0.0
 11
-82.0350737095
 21
-113.954043535
 31
0.0
  0
LINE
  5
FB
330
1F
100
AcDbEntity
  8
0
100
AcDbLine
 10
230.9649262905
 20
-123.954043535
 30
0.0
 11
-82.0350737095
 21
-123.954043535
 31
0.0
  0
LINE
  5
FC
330
1F
100
AcDbEntity
  8
0
100
AcDbLine
 10
74.4649262905
 20
-85.5624190778
 30
0.0
 11
-83.0350737095
 21
-85.5624190778
 31
0.0
  0
LINE
  5
FD
330
1F
100
AcDbEntity
  8
0
100
AcDbLine
 10
231.9649262905
 20
-85.5624190778
 30
0.0
 11
74.4649262905
 21
-85.5624190778
 31
0.0
  0
LINE
  5
FE
330
1F
100
AcDbEntity
  8
0
100
AcDbLine
 10
74.4649262905
 20
-87.5624190778
 30
0.0
 11
-83.0350737095
 21
-87.5624190778
 31
0.0
  0
LINE
  5
FF
330
1F
100
AcDbEntity
  8
0
100
AcDbLine
 10
231.9649262905
 20
-87.5624190778
 30
0.0
 11
74.4649262905
 21
-87.5624190778
 31
0.0
  0
LINE
  5
100
330
1F
100
AcDbEntity
  8
0
100
AcDbLine
 10
74.4649262905
 20
-110.954043535
 30
0.0
 11
-83.0350737095
 21
-110.954043535
 31
0.0
  0
LINE
  5
101
330
1F
100
AcDbEntity
  8
0
100
AcDbLine
 10
231.9649262905
 20
-110.954043535
 30
0.0
 11
74.4649262905
 21
-110.954043535
 31
0.0
  0
LINE
  5
102
330
1F
100
AcDbEntity
  8
0
100
AcDbLine
 10
74.4649262905
 20
-126.954043535
 30
0.0
 11
-83.0350737095
 21
-126.954043535
 31
0.0
  0
LINE
  5
103
330
1F
100
AcDbEntity
  8
0
100
AcDbLine
 10
231.9649262905
 20
-126.954043535
 30
0.0
 11
74.4649262905
 21
-126.954043535
 31
0.0
  0
LINE
  5
104
330
1F
100
AcDbEntity
  8
0
100
AcDbLine
 10
74.4649262905
 20
-131.954043535
 30
0.0
 11
-83.0350737095
 21
-131.954043535
 31
0.0
  0
LINE
  5
105
330
1F
100
AcDbEntity
  8
0
100
AcDbLine
 10
231.9649262905
 20
-131.954043535
 30
0.0
 11
74.4649262905
 21
-131.954043535
 31
0.0
  0
LINE
  5
106
330
1F
100
AcDbEntity
  8
0
100
AcDbLine
 10
74.4649262905
 20
-135.954043535
 30
0.0
 11
-80.0350737095
 21
-135.954043535
 31
0.0
  0
LINE
  5
107
330
1F
100
AcDbEntity
  8
0
100
AcDbLine
 10
228.9649262905
 20
-135.954043535
 30
0.0
 11
74.4649262905
 21
-135.954043535
 31
0.0
  0
LINE
  5
108
330
1F
100
AcDbEntity
  8
0
100
AcDbLine
 10
65.5104436186
 20
534.445956465
 30
0.0
 11
65.5104436186
 21
535.145956465
 31
0.0
  0
LINE
  5
109
330
1F
100
AcDbEntity
  8
0
100
AcDbLine
 10
65.5104436186
 20
535.145956465
 30
0.0
 11
66.9649262905
 21
535.145956465
 31
0.0
  0
LINE
  5
10A
330
1F
100
AcDbEntity
  8
0
100
AcDbLine
 10
66.9649262905
 20
534.445956465
 30
0.0
 11
66.9649262905
 21
535.145956465
 31
0.0
  0
LINE
  5
10B
330
1F
100
AcDbEntity
  8
0
100
AcDbLine
 10
83.4194089624
 20
534.445956465
 30
0.0
 11
83.4194089624
 21
535.145956465
 31
0.0
  0
LINE
  5
10C
330
1F
100
AcDbEntity
  8
0
100
AcDbLine
 10
81.9649262905
 20
534.445956465
 30
0.0
 11
81.9649262905
 21
535.145956465
 31
0.0
  0
LINE
  5
10D
330
1F
100
AcDbEntity
  8
0
100
AcDbLine
 10
81.9649262905
 20
535.145956465
 30
0.0
 11
83.4194089624
 21
535.145956465
 31
0.0
  0
LINE
  5
10E
330
1F
100
AcDbEntity
  8
0
100
AcDbLine
 10
81.9649262905
 20
535.145956465
 30
0.0
 11
66.9649262905
 21
535.145956465
 31
0.0
  0
LINE
  5
10F
330
1F
100
AcDbEntity
  8
0
100
AcDbLine
 10
112.6192183164
 20
534.445956465
 30
0.0
 11
112.6192183164
 21
535.145956465
 31
0.0
  0
LINE
  5
110
330
1F
100
AcDbEntity
  8
0
100
AcDbLine
 10
98.4194089624
 20
534.445956465
 30
0.0
 11
98.4194089624
 21
535.145956465
 31
0.0
  0
LINE
  5
111
330
1F
100
AcDbEntity
  8
0
100
AcDbLine
 10
98.4194089624
 20
535.145956465
 30
0.0
 11
112.6192183164
 21
535.145956465
 31
0.0
  0
LINE
  5
112
330
1F
100
AcDbEntity
  8
0
100
AcDbLine
 10
36.3106342646
 20
534.445956465
 30
0.0
 11
36.3106342646
 21
535.145956465
 31
0.0
  0
LINE
  5
113
330
1F
100
AcDbEntity
  8
0
100
AcDbLine
 10
50.5104436186
 20
534.445956465
 30
0.0
 11
50.5104436186
 21
535.145956465
 31
0.0
  0
LINE
  5
114
330
1F
100
AcDbEntity
  8
0
100
AcDbLine
 10
36.3106342646
 20
535.145956465
 30
0.0
 11
50.5104436186
 21
535.145956465
 31
0.0
  0
LINE
  5
115
330
1F
100
AcDbEntity
  8
0
100
AcDbLine
 10
114.8738916343
 20
534.445956465
 30
0.0
 11
114.8738916343
 21
535.145956465
 31
0.0
  0
LINE
  5
116
330
1F
100
AcDbEntity
  8
0
100
AcDbLine
 10
116.3283743062
 20
534.445956465
 30
0.0
 11
116.3283743062
 21
535.145956465
 31
0.0
  0
LINE
  5
117
330
1F
100
AcDbEntity
  8
0
100
AcDbLine
 10
114.8738916343
 20
535.145956465
 30
0.0
 11
116.3283743062
 21
535.145956465
 31
0.0
  0
LINE
  5
118
330
1F
100
AcDbEntity
  8
0
100
AcDbLine
 10
32.6014782748
 20
534.445956465
 30
0.0
 11
32.6014782748
 21
535.145956465
 31
0.0
  0
LINE
  5
119
330
1F
100
AcDbEntity
  8
0
100
AcDbLine
 10
34.0559609467
 20
534.445956465
 30
0.0
 11
34.0559609467
 21
535.145956465
 31
0.0
  0
LINE
  5
11A
330
1F
100
AcDbEntity
  8
0
100
AcDbLine
 10
32.6014782748
 20
535.145956465
 30
0.0
 11
34.0559609467
 21
535.145956465
 31
0.0
  0
LINE
  5
11B
330
1F
100
AcDbEntity
  8
0
100
AcDbLine
 10
132.7828569781
 20
534.445956465
 30
0.0
 11
132.7828569781
 21
535.145956465
 31
0.0
  0
LINE
  5
11C
330
1F
100
AcDbEntity
  8
0
100
AcDbLine
 10
130.85641501
 20
534.445956465
 30
0.0
 11
130.85641501
 21
535.145956465
 31
0.0
  0
LINE
  5
11D
330
1F
100
AcDbEntity
  8
0
100
AcDbLine
 10
130.85641501
 20
535.145956465
 30
0.0
 11
132.7828569781
 21
535.145956465
 31
0.0
  0
LINE
  5
11E
330
1F
100
AcDbEntity
  8
0
100
AcDbLine
 10
130.85641501
 20
535.145956465
 30
0.0
 11
116.3283743062
 21
535.145956465
 31
0.0
  0
LINE
  5
11F
330
1F
100
AcDbEntity
  8
0
100
AcDbLine
 10
16.1469956029
 20
534.445956465
 30
0.0
 11
16.1469956029
 21
535.145956465
 31
0.0
  0
LINE
  5
120
330
1F
100
AcDbEntity
  8
0
100
AcDbLine
 10
18.073437571
 20
534.445956465
 30
0.0
 11
18.073437571
 21
535.145956465
 31
0.0
  0
LINE
  5
121
330
1F
100
AcDbEntity
  8
0
100
AcDbLine
 10
16.1469956029
 20
535.145956465
 30
0.0
 11
18.073437571
 21
535.145956465
 31
0.0
  0
LINE
  5
122
330
1F
100
AcDbEntity
  8
0
100
AcDbLine
 10
65.5104436186
 20
535.145956465
 30
0.0
 11
50.5104436186
 21
535.145956465
 31
0.0
  0
LINE
  5
123
330
1F
100
AcDbEntity
  8
0
100
AcDbLine
 10
98.4194089624
 20
535.145956465
 30
0.0
 11
83.4194089624
 21
535.145956465
 31
0.0
  0
LINE
  5
124
330
1F
100
AcDbEntity
  8
0
100
AcDbLine
 10
32.6014782748
 20
535.145956465
 30
0.0
 11
18.073437571
 21
535.145956465
 31
0.0
  0
LINE
  5
125
330
1F
100
AcDbEntity
  8
0
100
AcDbLine
 10
149.23733965
 20
534.445956465
 30
0.0
 11
149.23733965
 21
535.145956465
 31
0.0
  0
LINE
  5
126
330
1F
100
AcDbEntity
  8
0
100
AcDbLine
 10
147.7828569781
 20
534.445956465
 30
0.0
 11
147.7828569781
 21
535.145956465
 31
0.0
  0
LINE
  5
127
330
1F
100
AcDbEntity
  8
0
100
AcDbLine
 10
147.7828569781
 20
535.145956465
 30
0.0
 11
149.23733965
 21
535.145956465
 31
0.0
  0
LINE
  5
128
330
1F
100
AcDbEntity
  8
0
100
AcDbLine
 10
-0.307487069
 20
534.445956465
 30
0.0
 11
-0.307487069
 21
535.145956465
 31
0.0
  0
LINE
  5
129
330
1F
100
AcDbEntity
  8
0
100
AcDbLine
 10
1.1469956029
 20
534.445956465
 30
0.0
 11
1.1469956029
 21
535.145956465
 31
0.0
  0
LINE
  5
12A
330
1F
100
AcDbEntity
  8
0
100
AcDbLine
 10
-0.307487069
 20
535.145956465
 30
0.0
 11
1.1469956029
 21
535.145956465
 31
0.0
  0
LINE
  5
12B
330
1F
100
AcDbEntity
  8
0
100
AcDbLine
 10
16.1469956029
 20
535.145956465
 30
0.0
 11
1.1469956029
 21
535.145956465
 31
0.0
  0
LINE
  5
12C
330
1F
100
AcDbEntity
  8
0
100
AcDbLine
 10
114.8738916343
 20
535.145956465
 30
0.0
 11
112.6192183164
 21
535.145956465
 31
0.0
  0
LINE
  5
12D
330
1F
100
AcDbEntity
  8
0
100
AcDbLine
 10
36.3106342646
 20
535.145956465
 30
0.0
 11
34.0559609467
 21
535.145956465
 31
0.0
  0
LINE
  5
12E
330
1F
100
AcDbEntity
  8
0
100
AcDbLine
 10
147.7828569781
 20
535.145956465
 30
0.0
 11
132.7828569781
 21
535.145956465
 31
0.0
  0
LINE
  5
12F
330
1F
100
AcDbEntity
  8
0
100
AcDbLine
 10
165.6918223219
 20
534.445956465
 30
0.0
 11
165.6918223219
 21
535.145956465
 31
0.0
  0
LINE
  5
130
330
1F
100
AcDbEntity
  8
0
100
AcDbLine
 10
164.23733965
 20
534.445956465
 30
0.0
 11
164.23733965
 21
535.145956465
 31
0.0
  0
LINE
  5
131
330
1F
100
AcDbEntity
  8
0
100
AcDbLine
 10
164.23733965
 20
535.145956465
 30
0.0
 11
165.6918223219
 21
535.145956465
 31
0.0
  0
LINE
  5
132
330
1F
100
AcDbEntity
  8
0
100
AcDbLine
 10
-16.7619697409
 20
534.445956465
 30
0.0
 11
-16.7619697409
 21
535.145956465
 31
0.0
  0
LINE
  5
133
330
1F
100
AcDbEntity
  8
0
100
AcDbLine
 10
-15.307487069
 20
534.445956465
 30
0.0
 11
-15.307487069
 21
535.145956465
 31
0.0
  0
LINE
  5
134
330
1F
100
AcDbEntity
  8
0
100
AcDbLine
 10
-16.7619697409
 20
535.145956465
 30
0.0
 11
-15.307487069
 21
535.145956465
 31
0.0
  0
LINE
  5
135
330
1F
100
AcDbEntity
  8
0
100
AcDbLine
 10
164.23733965
 20
535.145956465
 30
0.0
 11
149.23733965
 21
535.145956465
 31
0.0
  0
LINE
  5
136
330
1F
100
AcDbEntity
  8
0
100
AcDbLine
 10
-0.307487069
 20
535.145956465
 30
0.0
 11
-15.307487069
 21
535.145956465
 31
0.0
  0
LINE
  5
137
330
1F
100
AcDbEntity
  8
0
100
AcDbLine
 10
180.0383604489
 20
534.445956465
 30
0.0
 11
180.0383604489
 21
535.145956465
 31
0.0
  0
LINE
  5
138
330
1F
100
AcDbEntity
  8
0
100
AcDbLine
 10
180.0383604489
 20
535.145956465
 30
0.0
 11
165.6918223219
 21
535.145956465
 31
0.0
  0
LINE
  5
139
330
1F
100
AcDbEntity
  8
0
100
AcDbLine
 10
-31.1085078679
 20
534.445956465
 30
0.0
 11
-31.1085078679
 21
535.145956465
 31
0.0
  0
LINE
  5
13A
330
1F
100
AcDbEntity
  8
0
100
AcDbLine
 10
-16.7619697409
 20
535.145956465
 30
0.0
 11
-31.1085078679
 21
535.145956465
 31
0.0
  0
LINE
  5
13B
330
1F
100
AcDbEntity
  8
0
100
AcDbLine
 10
-33.2164524128
 20
534.445956465
 30
0.0
 11
-33.2164524128
 21
535.145956465
 31
0.0
  0
LINE
  5
13C
330
1F
100
AcDbEntity
  8
0
100
AcDbLine
 10
-33.2164524128
 20
535.145956465
 30
0.0
 11
-31.1085078679
 21
535.145956465
 31
0.0
  0
LINE
  5
13D
330
1F
100
AcDbEntity
  8
0
100
AcDbLine
 10
182.1463049938
 20
534.445956465
 30
0.0
 11
182.1463049938
 21
535.145956465
 31
0.0
  0
LINE
  5
13E
330
1F
100
AcDbEntity
  8
0
100
AcDbLine
 10
180.0383604489
 20
535.145956465
 30
0.0
 11
182.1463049938
 21
535.145956465
 31
0.0
  0
LINE
  5
13F
330
1F
100
AcDbEntity
  8
0
100
AcDbLine
 10
190.39594026
 20
534.445956465
 30
0.0
 11
190.39594026
 21
535.145956465
 31
0.0
  0
LINE
  5
140
330
1F
100
AcDbEntity
  8
0
100
AcDbLine
 10
190.39594026
 20
535.145956465
 30
0.0
 11
182.1463049938
 21
535.145956465
 31
0.0
  0
LINE
  5
141
330
1F
100
AcDbEntity
  8
0
100
AcDbLine
 10
194.2647593455
 20
534.445956465
 30
0.0
 11
194.2647593455
 21
535.145956465
 31
0.0
  0
LINE
  5
142
330
1F
100
AcDbEntity
  8
0
100
AcDbLine
 10
190.39594026
 20
535.145956465
 30
0.0
 11
194.2647593455
 21
535.145956465
 31
0.0
  0
LINE
  5
143
330
1F
100
AcDbEntity
  8
0
100
AcDbLine
 10
-45.3349067645
 20
534.445956465
 30
0.0
 11
-45.3349067645
 21
535.145956465
 31
0.0
  0
LINE
  5
144
330
1F
100
AcDbEntity
  8
0
100
AcDbLine
 10
-41.466087679
 20
534.445956465
 30
0.0
 11
-41.466087679
 21
535.145956465
 31
0.0
  0
LINE
  5
145
330
1F
100
AcDbEntity
  8
0
100
AcDbLine
 10
-45.3349067645
 20
535.145956465
 30
0.0
 11
-41.466087679
 21
535.145956465
 31
0.0
  0
LINE
  5
146
330
1F
100
AcDbEntity
  8
0
100
AcDbLine
 10
-33.2164524128
 20
535.145956465
 30
0.0
 11
-41.466087679
 21
535.145956465
 31
0.0
  0
LINE
  5
147
330
1F
100
AcDbEntity
  8
0
100
AcDbLine
 10
-53.5575326767
 20
534.445956465
 30
0.0
 11
-53.5575326767
 21
535.145956465
 31
0.0
  0
LINE
  5
148
330
1F
100
AcDbEntity
  8
0
100
AcDbLine
 10
-48.2164524128
 20
534.445956465
 30
0.0
 11
-48.2164524128
 21
535.145956465
 31
0.0
  0
LINE
  5
149
330
1F
100
AcDbEntity
  8
0
100
AcDbLine
 10
-53.5575326767
 20
535.145956465
 30
0.0
 11
-48.2164524128
 21
535.145956465
 31
0.0
  0
LINE
  5
14A
330
1F
100
AcDbEntity
  8
0
100
AcDbLine
 10
202.4873852577
 20
534.445956465
 30
0.0
 11
202.4873852577
 21
535.145956465
 31
0.0
  0
LINE
  5
14B
330
1F
100
AcDbEntity
  8
0
100
AcDbLine
 10
197.1463049938
 20
534.445956465
 30
0.0
 11
197.1463049938
 21
535.145956465
 31
0.0
  0
LINE
  5
14C
330
1F
100
AcDbEntity
  8
0
100
AcDbLine
 10
197.1463049938
 20
535.145956465
 30
0.0
 11
202.4873852577
 21
535.145956465
 31
0.0
  0
LINE
  5
14D
330
1F
100
AcDbEntity
  8
0
100
AcDbLine
 10
-45.3349067645
 20
535.145956465
 30
0.0
 11
-48.2164524128
 21
535.145956465
 31
0.0
  0
LINE
  5
14E
330
1F
100
AcDbEntity
  8
0
100
AcDbLine
 10
197.1463049938
 20
535.145956465
 30
0.0
 11
194.2647593455
 21
535.145956465
 31
0.0
  0
LINE
  5
14F
330
1F
100
AcDbEntity
  8
0
100
AcDbLine
 10
213.1723521912
 20
534.445956465
 30
0.0
 11
213.1723521912
 21
535.145956465
 31
0.0
  0
LINE
  5
150
330
1F
100
AcDbEntity
  8
0
100
AcDbLine
 10
213.1723521912
 20
535.145956465
 30
0.0
 11
202.4873852577
 21
535.145956465
 31
0.0
  0
LINE
  5
151
330
1F
100
AcDbEntity
  8
0
100
AcDbLine
 10
215.0552703376
 20
534.445956465
 30
0.0
 11
215.0552703376
 21
535.145956465
 31
0.0
  0
LINE
  5
152
330
1F
100
AcDbEntity
  8
0
100
AcDbLine
 10
213.1723521912
 20
535.145956465
 30
0.0
 11
215.0552703376
 21
535.145956465
 31
0.0
  0
LINE
  5
153
330
1F
100
AcDbEntity
  8
0
100
AcDbLine
 10
-66.1254177566
 20
534.445956465
 30
0.0
 11
-66.1254177566
 21
535.145956465
 31
0.0
  0
LINE
  5
154
330
1F
100
AcDbEntity
  8
0
100
AcDbLine
 10
-64.2424996102
 20
534.445956465
 30
0.0
 11
-64.2424996102
 21
535.145956465
 31
0.0
  0
LINE
  5
155
330
1F
100
AcDbEntity
  8
0
100
AcDbLine
 10
-66.1254177566
 20
535.145956465
 30
0.0
 11
-64.2424996102
 21
535.145956465
 31
0.0
  0
LINE
  5
156
330
1F
100
AcDbEntity
  8
0
100
AcDbLine
 10
-53.5575326767
 20
535.145956465
 30
0.0
 11
-64.2424996102
 21
535.145956465
 31
0.0
  0
LINE
  5
157
330
1F
100
AcDbEntity
  8
0
100
AcDbLine
 10
218.7285738252
 20
534.445956465
 30
0.0
 11
218.7285738252
 21
535.145956465
 31
0.0
  0
LINE
  5
158
330
1F
100
AcDbEntity
  8
0
100
AcDbLine
 10
218.7285738252
 20
535.145956465
 30
0.0
 11
215.0552703376
 21
535.145956465
 31
0.0
  0
LINE
  5
159
330
1F
100
AcDbEntity
  8
0
100
AcDbLine
 10
-71.8908047213
 20
534.445956465
 30
0.0
 11
-71.8908047213
 21
535.145956465
 31
0.0
  0
LINE
  5
15A
330
1F
100
AcDbEntity
  8
0
100
AcDbLine
 10
-69.7987212441
 20
534.445956465
 30
0.0
 11
-69.7987212441
 21
535.145956465
 31
0.0
  0
LINE
  5
15B
330
1F
100
AcDbEntity
  8
0
100
AcDbLine
 10
-71.8908047213
 20
535.145956465
 30
0.0
 11
-69.7987212441
 21
535.145956465
 31
0.0
  0
LINE
  5
15C
330
1F
100
AcDbEntity
  8
0
100
AcDbLine
 10
220.8206573023
 20
534.445956465
 30
0.0
 11
220.8206573023
 21
535.145956465
 31
0.0
  0
LINE
  5
15D
330
1F
100
AcDbEntity
  8
0
100
AcDbLine
 10
218.7285738252
 20
535.145956465
 30
0.0
 11
220.8206573023
 21
535.145956465
 31
0.0
  0
LINE
  5
15E
330
1F
100
AcDbEntity
  8
0
100
AcDbLine
 10
-66.1254177566
 20
535.145956465
 30
0.0
 11
-69.7987212441
 21
535.145956465
 31
0.0
  0
LINE
  5
15F
330
1F
100
AcDbEntity
  8
0
100
AcDbLine
 10
-80.0375008749
 20
534.445956465
 30
0.0
 11
-80.0375008749
 21
535.145956465
 31
0.0
  0
LINE
  5
160
330
1F
100
AcDbEntity
  8
0
100
AcDbLine
 10
-78.5546802964
 20
534.445956465
 30
0.0
 11
-78.5546802964
 21
535.145956465
 31
0.0
  0
LINE
  5
161
330
1F
100
AcDbEntity
  8
0
100
AcDbLine
 10
-80.0375008749
 20
535.145956465
 30
0.0
 11
-78.5546802964
 21
535.145956465
 31
0.0
  0
LINE
  5
162
330
1F
100
AcDbEntity
  8
0
100
AcDbLine
 10
228.9673534559
 20
534.445956465
 30
0.0
 11
228.9673534559
 21
535.145956465
 31
0.0
  0
LINE
  5
163
330
1F
100
AcDbEntity
  8
0
100
AcDbLine
 10
227.4845328774
 20
534.445956465
 30
0.0
 11
227.4845328774
 21
535.145956465
 31
0.0
  0
LINE
  5
164
330
1F
100
AcDbEntity
  8
0
100
AcDbLine
 10
227.4845328774
 20
535.145956465
 30
0.0
 11
228.9673534559
 21
535.145956465
 31
0.0
  0
LINE
  5
165
330
1F
100
AcDbEntity
  8
0
100
AcDbLine
 10
-71.8908047213
 20
535.145956465
 30
0.0
 11
-78.5546802964
 21
535.145956465
 31
0.0
  0
LINE
  5
166
330
1F
100
AcDbEntity
  8
0
100
AcDbLine
 10
227.4845328774
 20
535.145956465
 30
0.0
 11
220.8206573023
 21
535.145956465
 31
0.0
  0
LINE
  5
167
330
1F
100
AcDbEntity
  8
0
100
AcDbLine
 10
-83.0969663105
 20
534.445956465
 30
0.0
 11
-83.0969663105
 21
535.145956465
 31
0.0
  0
LINE
  5
168
330
1F
100
AcDbEntity
  8
0
100
AcDbLine
 10
-81.1254177566
 20
534.445956465
 30
0.0
 11
-81.1254177566
 21
535.145956465
 31
0.0
  0
LINE
  5
169
330
1F
100
AcDbEntity
  8
0
100
AcDbLine
 10
-83.0969663105
 20
535.145956465
 30
0.0
 11
-81.1254177566
 21
535.145956465
 31
0.0
  0
LINE
  5
16A
330
1F
100
AcDbEntity
  8
0
100
AcDbLine
 10
232.0268188915
 20
534.445956465
 30
0.0
 11
232.0268188915
 21
535.145956465
 31
0.0
  0
LINE
  5
16B
330
1F
100
AcDbEntity
  8
0
100
AcDbLine
 10
230.0552703376
 20
534.445956465
 30
0.0
 11
230.0552703376
 21
535.145956465
 31
0.0
  0
LINE
  5
16C
330
1F
100
AcDbEntity
  8
0
100
AcDbLine
 10
230.0552703376
 20
535.145956465
 30
0.0
 11
232.0268188915
 21
535.145956465
 31
0.0
  0
LINE
  5
16D
330
1F
100
AcDbEntity
  8
0
100
AcDbLine
 10
230.0552703376
 20
535.145956465
 30
0.0
 11
228.9673534559
 21
535.145956465
 31
0.0
  0
LINE
  5
16E
330
1F
100
AcDbEntity
  8
0
100
AcDbLine
 10
-80.0375008749
 20
535.145956465
 30
0.0
 11
-81.1254177566
 21
535.145956465
 31
0.0
  0
LINE
  5
16F
330
1F
100
AcDbEntity
  8
0
100
AcDbLine
 10
235.6038415158
 20
534.445956465
 30
0.0
 11
235.6038415158
 21
535.145956465
 31
0.0
  0
LINE
  5
170
330
1F
100
AcDbEntity
  8
0
100
AcDbLine
 10
235.6038415158
 20
535.145956465
 30
0.0
 11
232.0268188915
 21
535.145956465
 31
0.0
  0
LINE
  5
171
330
1F
100
AcDbEntity
  8
0
100
AcDbLine
 10
236.3097593869
 20
534.445956465
 30
0.0
 11
236.3097593869
 21
535.145956465
 31
0.0
  0
LINE
  5
172
330
1F
100
AcDbEntity
  8
0
100
AcDbLine
 10
235.6038415158
 20
535.145956465
 30
0.0
 11
236.3097593869
 21
535.145956465
 31
0.0
  0
LINE
  5
173
330
1F
100
AcDbEntity
  8
0
100
AcDbLine
 10
-86.6739889348
 20
534.445956465
 30
0.0
 11
-86.6739889348
 21
535.145956465
 31
0.0
  0
LINE
  5
174
330
1F
100
AcDbEntity
  8
0
100
AcDbLine
 10
-83.0969663105
 20
535.145956465
 30
0.0
 11
-86.6739889348
 21
535.145956465
 31
0.0
  0
LINE
  5
175
330
1F
100
AcDbEntity
  8
0
100
AcDbLine
 10
-87.3799068059
 20
534.445956465
 30
0.0
 11
-87.3799068059
 21
535.145956465
 31
0.0
  0
LINE
  5
176
330
1F
100
AcDbEntity
  8
0
100
AcDbLine
 10
-87.3799068059
 20
535.145956465
 30
0.0
 11
-86.6739889348
 21
535.145956465
 31
0.0
  0
LINE
  5
177
330
1F
100
AcDbEntity
  8
0
100
AcDbLine
 10
238.2933426291
 20
534.445956465
 30
0.0
 11
238.2933426291
 21
535.145956465
 31
0.0
  0
LINE
  5
178
330
1F
100
AcDbEntity
  8
0
100
AcDbLine
 10
238.0612282047
 20
534.445956465
 30
0.0
 11
238.0612282047
 21
535.145956465
 31
0.0
  0
LINE
  5
179
330
1F
100
AcDbEntity
  8
0
100
AcDbLine
 10
238.0612282047
 20
535.145956465
 30
0.0
 11
238.2933426291
 21
535.145956465
 31
0.0
  0
LINE
  5
17A
330
1F
100
AcDbEntity
  8
0
100
AcDbLine
 10
238.0612282047
 20
535.145956465
 30
0.0
 11
236.3097593869
 21
535.145956465
 31
0.0
  0
LINE
  5
17B
330
1F
100
AcDbEntity
  8
0
100
AcDbLine
 10
-89.3634900481
 20
534.445956465
 30
0.0
 11
-89.3634900481
 21
535.145956465
 31
0.0
  0
LINE
  5
17C
330
1F
100
AcDbEntity
  8
0
100
AcDbLine
 10
-89.1313756237
 20
534.445956465
 30
0.0
 11
-89.1313756237
 21
535.145956465
 31
0.0
  0
LINE
  5
17D
330
1F
100
AcDbEntity
  8
0
100
AcDbLine
 10
-89.3634900481
 20
535.145956465
 30
0.0
 11
-89.1313756237
 21
535.145956465
 31
0.0
  0
LINE
  5
17E
330
1F
100
AcDbEntity
  8
0
100
AcDbLine
 10
-87.3799068059
 20
535.145956465
 30
0.0
 11
-89.1313756237
 21
535.145956465
 31
0.0
  0
LINE
  5
17F
330
1F
100
AcDbEntity
  8
0
100
AcDbLine
 10
273.4649262905
 20
-36.254043535
 30
0.0
 11
-124.5350737095
 21
-36.254043535
 31
0.0
  0
LINE
  5
180
330
1F
100
AcDbEntity
  8
0
100
AcDbLine
 10
273.4649262905
 20
-38.654043535
 30
0.0
 11
-124.5350737095
 21
-38.654043535
 31
0.0
  0
LINE
  5
181
330
1F
100
AcDbEntity
  8
0
100
AcDbLine
 10
352.4299262905
 20
246.645956465
 30
0.0
 11
-203.5000737095
 21
246.645956465
 31
0.0
  0
LINE
  5
182
330
1F
100
AcDbEntity
  8
0
100
AcDbLine
 10
352.4299262905
 20
248.745956465
 30
0.0
 11
-203.5000737095
 21
248.745956465
 31
0.0
  0
LINE
  5
183
330
1F
100
AcDbEntity
  8
0
100
AcDbLine
 10
239.0149262905
 20
534.445956465
 30
0.0
 11
-90.0850737095
 21
534.445956465
 31
0.0
  0
LINE
  5
184
330
1F
100
AcDbEntity
  8
0
100
AcDbLine
 10
239.0149262905
 20
533.745956465
 30
0.0
 11
-90.0850737095
 21
533.745956465
 31
0.0
  0
CIRCLE
  5
185
330
1F
100
AcDbEntity
  8
0
100
AcDbCircle
 10
74.4649262905
 20
-605.1993994231
 30
0.0
 40
279.0150000000001
  0
CIRCLE
  5
186
330
1F
100
AcDbEntity
  8
0
100
AcDbCircle
 10
74.4649262905
 20
-605.1993994231
 30
0.0
 40
5.0
  0
CIRCLE
  5
187
330
1F
100
AcDbEntity
  8
0
100
AcDbCircle
 10
74.4649262905
 20
-605.1993994231
 30
0.0
 40
6.0
  0
ARC
  5
188
330
1F
100
AcDbEntity
  8
0
100
AcDbCircle
 10
74.4649262905
 20
-605.1993994231
 30
0.0
 40
8.000000000000087
100
AcDbArc
 50
110.3641348063
 51
159.6358651937
  0
ARC
  5
189
330
1F
100
AcDbEntity
  8
0
100
AcDbCircle
 10
74.4649262905
 20
-605.1993994231
 30
0.0
 40
8.000000000000087
100
AcDbArc
 50
20.3641348063
 51
69.6358651937
  0
ARC
  5
18A
330
1F
100
AcDbEntity
  8
0
100
AcDbCircle
 10
74.4649262905
 20
-605.1993994231
 30
0.0
 40
8.000000000000002
100
AcDbArc
 50
290.3641348063
 51
339.6358651937
  0
ARC
  5
18B
330
1F
100
AcDbEntity
  8
0
100
AcDbCircle
 10
74.4649262905
 20
-605.1993994231
 30
0.0
 40
8.000000000000002
100
AcDbArc
 50
200.3641348063
 51
249.6358651937
  0
LINE
  5
18C
330
1F
100
AcDbEntity
  8
0
100
AcDbLine
 10
16.1469956029
 20
-758.4802493696
 30
0.0
 11
16.1469956029
 21
-749.6993994231
 31
0.0
  0
LINE
  5
18D
330
1F
100
AcDbEntity
  8
0
100
AcDbLine
 10
16.1469956029
 20
-749.6993994231
 30
0.0
 11
1.1469956029
 21
-749.6993994231
 31
0.0
  0
LINE
  5
18E
330
1F
100
AcDbEntity
  8
0
100
AcDbLine
 10
1.1469956029
 20
-749.6993994231
 30
0.0
 11
1.1469956029
 21
-751.8980055504
 31
0.0
  0
ARC
  5
18F
330
1F
100
AcDbEntity
  8
0
100
AcDbCircle
 10
74.4649262905
 20
-605.1993994231
 30
0.0
 40
164.0
100
AcDbArc
 50
242.875253817
 51
243.4447520981
  0
LINE
  5
190
330
1F
100
AcDbEntity
  8
0
100
AcDbLine
 10
-0.307487069
 20
-751.1620186117
 30
0.0
 11
-0.307487069
 21
-740.1993994231
 31
0.0
  0
LINE
  5
191
330
1F
100
AcDbEntity
  8
0
100
AcDbLine
 10
-0.307487069
 20
-740.1993994231
 30
0.0
 11
-15.307487069
 21
-740.1993994231
 31
0.0
  0
LINE
  5
192
330
1F
100
AcDbEntity
  8
0
100
AcDbLine
 10
-15.307487069
 20
-740.1993994231
 30
0.0
 11
-15.307487069
 21
-742.4470361955
 31
0.0
  0
ARC
  5
193
330
1F
100
AcDbEntity
  8
0
100
AcDbCircle
 10
74.4649262905
 20
-605.1993994231
 30
0.0
 40
164.0
100
AcDbArc
 50
236.2023479895
 51
236.8116710719
  0
LINE
  5
194
330
1F
100
AcDbEntity
  8
0
100
AcDbLine
 10
-16.7619697409
 20
-741.4845909901
 30
0.0
 11
-16.7619697409
 21
-730.6993994231
 31
0.0
  0
LINE
  5
195
330
1F
100
AcDbEntity
  8
0
100
AcDbLine
 10
-16.7619697409
 20
-730.6993994231
 30
0.0
 11
-31.1085078679
 21
-730.6993994231
 31
0.0
  0
ARC
  5
196
330
1F
100
AcDbEntity
  8
0
100
AcDbCircle
 10
74.4649262905
 20
-605.1993994231
 30
0.0
 40
164.0
100
AcDbArc
 50
228.9593910087
 51
229.9286955369
  0
LINE
  5
197
330
1F
100
AcDbEntity
  8
0
100
AcDbLine
 10
-33.2164524128
 20
-728.8954813358
 30
0.0
 11
-33.2164524128
 21
-721.1993994231
 31
0.0
  0
LINE
  5
198
330
1F
100
AcDbEntity
  8
0
100
AcDbLine
 10
-33.2164524128
 20
-721.1993994231
 30
0.0
 11
-41.466087679
 21
-721.1993994231
 31
0.0
  0
ARC
  5
199
330
1F
100
AcDbEntity
  8
0
100
AcDbCircle
 10
74.4649262905
 20
-605.1993994231
 30
0.0
 40
164.0
100
AcDbArc
 50
223.0727813468
 51
225.0170421722
  0
LINE
  5
19A
330
1F
100
AcDbEntity
  8
0
100
AcDbLine
 10
-45.3349067645
 20
-717.1993994231
 30
0.0
 11
-33.2164524128
 21
-717.1993994231
 31
0.0
  0
LINE
  5
19B
330
1F
100
AcDbEntity
  8
0
100
AcDbLine
 10
-33.2164524128
 20
-717.1993994231
 30
0.0
 11
-33.2164524128
 21
-702.1993994231
 31
0.0
  0
LINE
  5
19C
330
1F
100
AcDbEntity
  8
0
100
AcDbLine
 10
-33.2164524128
 20
-702.1993994231
 30
0.0
 11
-48.2164524128
 21
-702.1993994231
 31
0.0
  0
LINE
  5
19D
330
1F
100
AcDbEntity
  8
0
100
AcDbLine
 10
-48.2164524128
 20
-702.1993994231
 30
0.0
 11
-48.2164524128
 21
-714.0354197447
 31
0.0
  0
ARC
  5
19E
330
1F
100
AcDbEntity
  8
0
100
AcDbCircle
 10
74.4649262905
 20
-605.1993994231
 30
0.0
 40
164.0000000000001
100
AcDbArc
 50
218.6821874535
 51
221.5776354473
  0
LINE
  5
19F
330
1F
100
AcDbEntity
  8
0
100
AcDbLine
 10
-53.5575326767
 20
-707.6993994231
 30
0.0
 11
-49.6709350847
 21
-707.6993994231
 31
0.0
  0
LINE
  5
1A0
330
1F
100
AcDbEntity
  8
0
100
AcDbLine
 10
-49.6709350847
 20
-707.6993994231
 30
0.0
 11
-49.6709350847
 21
-692.6993994231
 31
0.0
  0
LINE
  5
1A1
330
1F
100
AcDbEntity
  8
0
100
AcDbLine
 10
-49.6709350847
 20
-692.6993994231
 30
0.0
 11
-64.2424996102
 21
-692.6993994231
 31
0.0
  0
ARC
  5
1A2
330
1F
100
AcDbEntity
  8
0
100
AcDbCircle
 10
74.4649262905
 20
-605.1993994231
 30
0.0
 40
164.0000000000001
100
AcDbArc
 50
210.9898868677
 51
212.2447205688
  0
LINE
  5
1A3
330
1F
100
AcDbEntity
  8
0
100
AcDbLine
 10
-66.1254177566
 20
-689.6408297799
 30
0.0
 11
-66.1254177566
 21
-683.1993994231
 31
0.0
  0
LINE
  5
1A4
330
1F
100
AcDbEntity
  8
0
100
AcDbLine
 10
-66.1254177566
 20
-683.1993994231
 30
0.0
 11
-69.7987212441
 21
-683.1993994231
 31
0.0
  0
ARC
  5
1A5
330
1F
100
AcDbEntity
  8
0
100
AcDbCircle
 10
74.4649262905
 20
-605.1993994231
 30
0.0
 40
164.0
100
AcDbArc
 50
206.8219535426
 51
208.3990586119
  0
LINE
  5
1A6
330
1F
100
AcDbEntity
  8
0
100
AcDbLine
 10
-71.8908047213
 20
-679.1993994231
 30
0.0
 11
-66.1254177566
 21
-679.1993994231
 31
0.0
  0
LINE
  5
1A7
330
1F
100
AcDbEntity
  8
0
100
AcDbLine
 10
-66.1254177566
 20
-679.1993994231
 30
0.0
 11
-66.1254177566
 21
-664.1993994231
 31
0.0
  0
LINE
  5
1A8
330
1F
100
AcDbEntity
  8
0
100
AcDbLine
 10
-66.1254177566
 20
-664.1993994231
 30
0.0
 11
-78.5546802964
 21
-664.1993994231
 31
0.0
  0
ARC
  5
1A9
330
1F
100
AcDbEntity
  8
0
100
AcDbCircle
 10
74.4649262905
 20
-605.1993994231
 30
0.0
 40
164.0
100
AcDbArc
 50
199.5947868458
 51
201.0852178996
  0
LINE
  5
1AA
330
1F
100
AcDbEntity
  8
0
100
AcDbLine
 10
-80.0375008749
 20
-660.1993994231
 30
0.0
 11
-66.1254177566
 21
-660.1993994231
 31
0.0
  0
LINE
  5
1AB
330
1F
100
AcDbEntity
  8
0
100
AcDbLine
 10
-66.1254177566
 20
-660.1993994231
 30
0.0
 11
-66.1254177566
 21
-645.1993994231
 31
0.0
  0
LINE
  5
1AC
330
1F
100
AcDbEntity
  8
0
100
AcDbLine
 10
-66.1254177566
 20
-645.1993994231
 30
0.0
 11
-81.1254177566
 21
-645.1993994231
 31
0.0
  0
LINE
  5
1AD
330
1F
100
AcDbEntity
  8
0
100
AcDbLine
 10
-81.1254177566
 20
-645.1993994231
 30
0.0
 11
-81.1254177566
 21
-657.0418997418
 31
0.0
  0
ARC
  5
1AE
330
1F
100
AcDbEntity
  8
0
100
AcDbCircle
 10
74.4649262905
 20
-605.1993994231
 30
0.0
 40
164.0
100
AcDbArc
 50
196.1074169715
 51
198.4280059962
  0
LINE
  5
1AF
330
1F
100
AcDbEntity
  8
0
100
AcDbLine
 10
-83.0969663105
 20
-650.6993994231
 30
0.0
 11
-82.5799004285
 21
-650.6993994231
 31
0.0
  0
LINE
  5
1B0
330
1F
100
AcDbEntity
  8
0
100
AcDbLine
 10
-82.5799004285
 20
-650.6993994231
 30
0.0
 11
-82.5799004285
 21
-635.6993994231
 31
0.0
  0
LINE
  5
1B1
330
1F
100
AcDbEntity
  8
0
100
AcDbLine
 10
-82.5799004285
 20
-635.6993994231
 30
0.0
 11
-86.6739889348
 21
-635.6993994231
 31
0.0
  0
ARC
  5
1B2
330
1F
100
AcDbEntity
  8
0
100
AcDbCircle
 10
74.4649262905
 20
-605.1993994231
 30
0.0
 40
164.0
100
AcDbArc
 50
189.2989285097
 51
190.7180178802
  0
LINE
  5
1B3
330
1F
100
AcDbEntity
  8
0
100
AcDbLine
 10
-87.3799068059
 20
-631.6993994231
 30
0.0
 11
-82.5799004285
 21
-631.6993994231
 31
0.0
  0
LINE
  5
1B4
330
1F
100
AcDbEntity
  8
0
100
AcDbLine
 10
-82.5799004285
 20
-631.6993994231
 30
0.0
 11
-82.5799004285
 21
-616.6993994231
 31
0.0
  0
LINE
  5
1B5
330
1F
100
AcDbEntity
  8
0
100
AcDbLine
 10
-82.5799004285
 20
-616.6993994231
 30
0.0
 11
-89.1313756237
 21
-616.6993994231
 31
0.0
  0
ARC
  5
1B6
330
1F
100
AcDbEntity
  8
0
100
AcDbCircle
 10
74.4649262905
 20
-605.1993994231
 30
0.0
 40
164.0
100
AcDbArc
 50
182.6211480012
 51
184.0209917203
  0
LINE
  5
1B7
330
1F
100
AcDbEntity
  8
0
100
AcDbLine
 10
-89.3634900481
 20
-612.6993994231
 30
0.0
 11
-82.5799004285
 21
-612.6993994231
 31
0.0
  0
LINE
  5
1B8
330
1F
100
AcDbEntity
  8
0
100
AcDbLine
 10
-82.5799004285
 20
-612.6993994231
 30
0.0
 11
-82.5799004285
 21
-597.6993994231
 31
0.0
  0
LINE
  5
1B9
330
1F
100
AcDbEntity
  8
0
100
AcDbLine
 10
-82.5799004285
 20
-597.6993994231
 30
0.0
 11
-89.3634900481
 21
-597.6993994231
 31
0.0
  0
ARC
  5
1BA
330
1F
100
AcDbEntity
  8
0
100
AcDbCircle
 10
74.4649262905
 20
-605.1993994231
 30
0.0
 40
164.0
100
AcDbArc
 50
175.9790082797
 51
177.3788519988
  0
LINE
  5
1BB
330
1F
100
AcDbEntity
  8
0
100
AcDbLine
 10
-89.1313756237
 20
-593.6993994231
 30
0.0
 11
-82.5799004285
 21
-593.6993994231
 31
0.0
  0
LINE
  5
1BC
330
1F
100
AcDbEntity
  8
0
100
AcDbLine
 10
-82.5799004285
 20
-593.6993994231
 30
0.0
 11
-82.5799004285
 21
-578.6993994231
 31
0.0
  0
LINE
  5
1BD
330
1F
100
AcDbEntity
  8
0
100
AcDbLine
 10
-82.5799004285
 20
-578.6993994231
 30
0.0
 11
-87.3799068059
 21
-578.6993994231
 31
0.0
  0
ARC
  5
1BE
330
1F
100
AcDbEntity
  8
0
100
AcDbCircle
 10
74.4649262905
 20
-605.1993994231
 30
0.0
 40
164.0
100
AcDbArc
 50
169.2819821198
 51
170.7010714903
  0
LINE
  5
1BF
330
1F
100
AcDbEntity
  8
0
100
AcDbLine
 10
-86.6739889348
 20
-574.6993994231
 30
0.0
 11
-82.5799004285
 21
-574.6993994231
 31
0.0
  0
LINE
  5
1C0
330
1F
100
AcDbEntity
  8
0
100
AcDbLine
 10
-82.5799004285
 20
-574.6993994231
 30
0.0
 11
-82.5799004285
 21
-559.6993994231
 31
0.0
  0
LINE
  5
1C1
330
1F
100
AcDbEntity
  8
0
100
AcDbLine
 10
-82.5799004285
 20
-559.6993994231
 30
0.0
 11
-83.0969663105
 21
-559.6993994231
 31
0.0
  0
ARC
  5
1C2
330
1F
100
AcDbEntity
  8
0
100
AcDbCircle
 10
74.4649262905
 20
-605.1993994231
 30
0.0
 40
164.0
100
AcDbArc
 50
161.5719940038
 51
163.8925830285
  0
LINE
  5
1C3
330
1F
100
AcDbEntity
  8
0
100
AcDbLine
 10
-81.1254177566
 20
-553.3568991044
 30
0.0
 11
-81.1254177566
 21
-565.1993994231
 31
0.0
  0
LINE
  5
1C4
330
1F
100
AcDbEntity
  8
0
100
AcDbLine
 10
-81.1254177566
 20
-565.1993994231
 30
0.0
 11
-66.1254177566
 21
-565.1993994231
 31
0.0
  0
LINE
  5
1C5
330
1F
100
AcDbEntity
  8
0
100
AcDbLine
 10
-66.1254177566
 20
-565.1993994231
 30
0.0
 11
-66.1254177566
 21
-550.1993994231
 31
0.0
  0
LINE
  5
1C6
330
1F
100
AcDbEntity
  8
0
100
AcDbLine
 10
-66.1254177566
 20
-550.1993994231
 30
0.0
 11
-80.0375008749
 21
-550.1993994231
 31
0.0
  0
ARC
  5
1C7
330
1F
100
AcDbEntity
  8
0
100
AcDbCircle
 10
74.4649262905
 20
-605.1993994231
 30
0.0
 40
164.0
100
AcDbArc
 50
158.9147821004
 51
160.4052131542
  0
LINE
  5
1C8
330
1F
100
AcDbEntity
  8
0
100
AcDbLine
 10
-78.5546802964
 20
-546.1993994231
 30
0.0
 11
-66.1254177566
 21
-546.1993994231
 31
0.0
  0
LINE
  5
1C9
330
1F
100
AcDbEntity
  8
0
100
AcDbLine
 10
-66.1254177566
 20
-546.1993994231
 30
0.0
 11
-66.1254177566
 21
-531.1993994231
 31
0.0
  0
LINE
  5
1CA
330
1F
100
AcDbEntity
  8
0
100
AcDbLine
 10
-66.1254177566
 20
-531.1993994231
 30
0.0
 11
-71.8908047213
 21
-531.1993994231
 31
0.0
  0
ARC
  5
1CB
330
1F
100
AcDbEntity
  8
0
100
AcDbCircle
 10
74.4649262905
 20
-605.1993994231
 30
0.0
 40
164.0000000000001
100
AcDbArc
 50
151.6009413881
 51
153.1780464574
  0
LINE
  5
1CC
330
1F
100
AcDbEntity
  8
0
100
AcDbLine
 10
-69.7987212441
 20
-527.1993994231
 30
0.0
 11
-66.1254177566
 21
-527.1993994231
 31
0.0
  0
LINE
  5
1CD
330
1F
100
AcDbEntity
  8
0
100
AcDbLine
 10
-66.1254177566
 20
-527.1993994231
 30
0.0
 11
-66.1254177566
 21
-520.7579690663
 31
0.0
  0
ARC
  5
1CE
330
1F
100
AcDbEntity
  8
0
100
AcDbCircle
 10
74.4649262905
 20
-605.1993994231
 30
0.0
 40
164.0000000000001
100
AcDbArc
 50
147.7552794312
 51
149.0101131323
  0
LINE
  5
1CF
330
1F
100
AcDbEntity
  8
0
100
AcDbLine
 10
-64.2424996102
 20
-517.6993994231
 30
0.0
 11
-49.6709350847
 21
-517.6993994231
 31
0.0
  0
LINE
  5
1D0
330
1F
100
AcDbEntity
  8
0
100
AcDbLine
 10
-49.6709350847
 20
-517.6993994231
 30
0.0
 11
-49.6709350847
 21
-502.6993994231
 31
0.0
  0
LINE
  5
1D1
330
1F
100
AcDbEntity
  8
0
100
AcDbLine
 10
-49.6709350847
 20
-502.6993994231
 30
0.0
 11
-53.5575326767
 21
-502.6993994231
 31
0.0
  0
ARC
  5
1D2
330
1F
100
AcDbEntity
  8
0
100
AcDbCircle
 10
74.4649262905
 20
-605.1993994231
 30
0.0
 40
164.0
100
AcDbArc
 50
138.4223645527
 51
141.3178125465
  0
LINE
  5
1D3
330
1F
100
AcDbEntity
  8
0
100
AcDbLine
 10
-48.2164524128
 20
-496.3633791015
 30
0.0
 11
-48.2164524128
 21
-508.1993994231
 31
0.0
  0
LINE
  5
1D4
330
1F
100
AcDbEntity
  8
0
100
AcDbLine
 10
-48.2164524128
 20
-508.1993994231
 30
0.0
 11
-33.2164524128
 21
-508.1993994231
 31
0.0
  0
LINE
  5
1D5
330
1F
100
AcDbEntity
  8
0
100
AcDbLine
 10
-33.2164524128
 20
-508.1993994231
 30
0.0
 11
-33.2164524128
 21
-493.1993994231
 31
0.0
  0
LINE
  5
1D6
330
1F
100
AcDbEntity
  8
0
100
AcDbLine
 10
-33.2164524128
 20
-493.1993994231
 30
0.0
 11
-45.3349067645
 21
-493.1993994231
 31
0.0
  0
ARC
  5
1D7
330
1F
100
AcDbEntity
  8
0
100
AcDbCircle
 10
74.4649262905
 20
-605.1993994231
 30
0.0
 40
164.0
100
AcDbArc
 50
134.9829578278
 51
136.9272186532
  0
LINE
  5
1D8
330
1F
100
AcDbEntity
  8
0
100
AcDbLine
 10
-41.466087679
 20
-489.1993994231
 30
0.0
 11
-33.2164524128
 21
-489.1993994231
 31
0.0
  0
LINE
  5
1D9
330
1F
100
AcDbEntity
  8
0
100
AcDbLine
 10
-33.2164524128
 20
-489.1993994231
 30
0.0
 11
-33.2164524128
 21
-481.5033175104
 31
0.0
  0
ARC
  5
1DA
330
1F
100
AcDbEntity
  8
0
100
AcDbCircle
 10
74.4649262905
 20
-605.1993994231
 30
0.0
 40
164.0000000000001
100
AcDbArc
 50
130.0713044631
 51
131.0406089913
  0
LINE
  5
1DB
330
1F
100
AcDbEntity
  8
0
100
AcDbLine
 10
-31.1085078679
 20
-479.6993994231
 30
0.0
 11
-16.7619697409
 21
-479.6993994231
 31
0.0
  0
LINE
  5
1DC
330
1F
100
AcDbEntity
  8
0
100
AcDbLine
 10
-16.7619697409
 20
-479.6993994231
 30
0.0
 11
-16.7619697409
 21
-468.914207856
 31
0.0
  0
ARC
  5
1DD
330
1F
100
AcDbEntity
  8
0
100
AcDbCircle
 10
74.4649262905
 20
-605.1993994231
 30
0.0
 40
164.0
100
AcDbArc
 50
123.1883289281
 51
123.7976520105
  0
LINE
  5
1DE
330
1F
100
AcDbEntity
  8
0
100
AcDbLine
 10
-15.307487069
 20
-467.9517626507
 30
0.0
 11
-15.307487069
 21
-470.1993994231
 31
0.0
  0
LINE
  5
1DF
330
1F
100
AcDbEntity
  8
0
100
AcDbLine
 10
-15.307487069
 20
-470.1993994231
 30
0.0
 11
-0.307487069
 21
-470.1993994231
 31
0.0
  0
LINE
  5
1E0
330
1F
100
AcDbEntity
  8
0
100
AcDbLine
 10
-0.307487069
 20
-470.1993994231
 30
0.0
 11
-0.307487069
 21
-459.2367802345
 31
0.0
  0
LINE
  5
1E1
330
1F
100
AcDbEntity
  8
0
100
AcDbLine
 10
1.1469956029
 20
-458.5007932958
 30
0.0
 11
1.1469956029
 21
-460.6993994231
 31
0.0
  0
LINE
  5
1E2
330
1F
100
AcDbEntity
  8
0
100
AcDbLine
 10
1.1469956029
 20
-460.6993994231
 30
0.0
 11
16.1469956029
 21
-460.6993994231
 31
0.0
  0
LINE
  5
1E3
330
1F
100
AcDbEntity
  8
0
100
AcDbLine
 10
16.1469956029
 20
-460.6993994231
 30
0.0
 11
16.1469956029
 21
-451.9185494766
 31
0.0
  0
LINE
  5
1E4
330
1F
100
AcDbEntity
  8
0
100
AcDbLine
 10
18.073437571
 20
-451.1993994231
 30
0.0
 11
32.6014782748
 21
-451.1993994231
 31
0.0
  0
LINE
  5
1E5
330
1F
100
AcDbEntity
  8
0
100
AcDbLine
 10
32.6014782748
 20
-451.1993994231
 30
0.0
 11
32.6014782748
 21
-446.6325311301
 31
0.0
  0
LINE
  5
1E6
330
1F
100
AcDbEntity
  8
0
100
AcDbLine
 10
34.0559609467
 20
-446.2556498768
 30
0.0
 11
34.0559609467
 21
-460.6993994231
 31
0.0
  0
LINE
  5
1E7
330
1F
100
AcDbEntity
  8
0
100
AcDbLine
 10
34.0559609467
 20
-460.6993994231
 30
0.0
 11
49.0559609467
 21
-460.6993994231
 31
0.0
  0
LINE
  5
1E8
330
1F
100
AcDbEntity
  8
0
100
AcDbLine
 10
49.0559609467
 20
-460.6993994231
 30
0.0
 11
49.0559609467
 21
-445.6993994231
 31
0.0
  0
LINE
  5
1E9
330
1F
100
AcDbEntity
  8
0
100
AcDbLine
 10
49.0559609467
 20
-445.6993994231
 30
0.0
 11
36.3106342646
 21
-445.6993994231
 31
0.0
  0
LINE
  5
1EA
330
1F
100
AcDbEntity
  8
0
100
AcDbLine
 10
50.5104436186
 20
-442.9582740574
 30
0.0
 11
50.5104436186
 21
-451.1993994231
 31
0.0
  0
LINE
  5
1EB
330
1F
100
AcDbEntity
  8
0
100
AcDbLine
 10
50.5104436186
 20
-451.1993994231
 30
0.0
 11
65.5104436186
 21
-451.1993994231
 31
0.0
  0
LINE
  5
1EC
330
1F
100
AcDbEntity
  8
0
100
AcDbLine
 10
65.5104436186
 20
-451.1993994231
 30
0.0
 11
65.5104436186
 21
-441.4440415258
 31
0.0
  0
LINE
  5
1ED
330
1F
100
AcDbEntity
  8
0
100
AcDbLine
 10
66.9649262905
 20
-441.3709830845
 30
0.0
 11
66.9649262905
 21
-441.6993994231
 31
0.0
  0
LINE
  5
1EE
330
1F
100
AcDbEntity
  8
0
100
AcDbLine
 10
66.9649262905
 20
-441.6993994231
 30
0.0
 11
81.9649262905
 21
-441.6993994231
 31
0.0
  0
LINE
  5
1EF
330
1F
100
AcDbEntity
  8
0
100
AcDbLine
 10
81.9649262905
 20
-441.6993994231
 30
0.0
 11
81.9649262905
 21
-441.3709830845
 31
0.0
  0
ARC
  5
1F0
330
1F
100
AcDbEntity
  8
0
100
AcDbCircle
 10
74.4649262905
 20
-605.1993994231
 30
0.0
 40
164.0
100
AcDbArc
 50
86.8700650721
 51
87.3788519988
  0
LINE
  5
1F1
330
1F
100
AcDbEntity
  8
0
100
AcDbLine
 10
83.4194089624
 20
-441.4440415258
 30
0.0
 11
83.4194089624
 21
-451.1993994231
 31
0.0
  0
LINE
  5
1F2
330
1F
100
AcDbEntity
  8
0
100
AcDbLine
 10
83.4194089624
 20
-451.1993994231
 30
0.0
 11
98.4194089624
 21
-451.1993994231
 31
0.0
  0
LINE
  5
1F3
330
1F
100
AcDbEntity
  8
0
100
AcDbLine
 10
98.4194089624
 20
-451.1993994231
 30
0.0
 11
98.4194089624
 21
-442.9582740574
 31
0.0
  0
ARC
  5
1F4
330
1F
100
AcDbEntity
  8
0
100
AcDbCircle
 10
74.4649262905
 20
-605.1993994231
 30
0.0
 40
164.0000000000001
100
AcDbArc
 50
76.546971936
 51
81.6011067843
  0
ARC
  5
1F5
330
1F
100
AcDbEntity
  8
0
100
AcDbCircle
 10
74.4649262905
 20
-605.1993994231
 30
0.0
 40
164.0000000000001
100
AcDbArc
 50
75.2107161224
 51
75.7356443036
  0
LINE
  5
1F6
330
1F
100
AcDbEntity
  8
0
100
AcDbLine
 10
116.3283743062
 20
-446.6325311301
 30
0.0
 11
116.3283743062
 21
-451.1993994231
 31
0.0
  0
LINE
  5
1F7
330
1F
100
AcDbEntity
  8
0
100
AcDbLine
 10
116.3283743062
 20
-451.1993994231
 30
0.0
 11
130.85641501
 21
-451.1993994231
 31
0.0
  0
ARC
  5
1F8
330
1F
100
AcDbEntity
  8
0
100
AcDbCircle
 10
74.4649262905
 20
-605.1993994231
 30
0.0
 40
164.0000000000001
100
AcDbArc
 50
69.1699539587
 51
69.8883556957
  0
LINE
  5
1F9
330
1F
100
AcDbEntity
  8
0
100
AcDbLine
 10
147.7828569781
 20
-460.6993994231
 30
0.0
 11
147.7828569781
 21
-458.5007932958
 31
0.0
  0
ARC
  5
1FA
330
1F
100
AcDbEntity
  8
0
100
AcDbCircle
 10
74.4649262905
 20
-605.1993994231
 30
0.0
 40
164.0
100
AcDbArc
 50
62.875253817
 51
63.4447520981
  0
LINE
  5
1FB
330
1F
100
AcDbEntity
  8
0
100
AcDbLine
 10
149.23733965
 20
-459.2367802345
 30
0.0
 11
149.23733965
 21
-470.1993994231
 31
0.0
  0
LINE
  5
1FC
330
1F
100
AcDbEntity
  8
0
100
AcDbLine
 10
149.23733965
 20
-470.1993994231
 30
0.0
 11
164.23733965
 21
-470.1993994231
 31
0.0
  0
LINE
  5
1FD
330
1F
100
AcDbEntity
  8
0
100
AcDbLine
 10
164.23733965
 20
-470.1993994231
 30
0.0
 11
164.23733965
 21
-467.9517626507
 31
0.0
  0
ARC
  5
1FE
330
1F
100
AcDbEntity
  8
0
100
AcDbCircle
 10
74.4649262905
 20
-605.1993994231
 30
0.0
 40
164.0000000000001
100
AcDbArc
 50
56.2023479895
 51
56.8116710719
  0
LINE
  5
1FF
330
1F
100
AcDbEntity
  8
0
100
AcDbLine
 10
165.6918223219
 20
-468.914207856
 30
0.0
 11
165.6918223219
 21
-479.6993994231
 31
0.0
  0
LINE
  5
200
330
1F
100
AcDbEntity
  8
0
100
AcDbLine
 10
165.6918223219
 20
-479.6993994231
 30
0.0
 11
180.0383604489
 21
-479.6993994231
 31
0.0
  0
ARC
  5
201
330
1F
100
AcDbEntity
  8
0
100
AcDbCircle
 10
74.4649262905
 20
-605.1993994231
 30
0.0
 40
164.0000000000001
100
AcDbArc
 50
48.9593910087
 51
49.9286955369
  0
LINE
  5
202
330
1F
100
AcDbEntity
  8
0
100
AcDbLine
 10
182.1463049938
 20
-481.5033175104
 30
0.0
 11
182.1463049938
 21
-489.1993994231
 31
0.0
  0
LINE
  5
203
330
1F
100
AcDbEntity
  8
0
100
AcDbLine
 10
182.1463049938
 20
-489.1993994231
 30
0.0
 11
190.39594026
 21
-489.1993994231
 31
0.0
  0
ARC
  5
204
330
1F
100
AcDbEntity
  8
0
100
AcDbCircle
 10
74.4649262905
 20
-605.1993994231
 30
0.0
 40
164.0
100
AcDbArc
 50
43.0727813468
 51
45.0170421722
  0
LINE
  5
205
330
1F
100
AcDbEntity
  8
0
100
AcDbLine
 10
194.2647593455
 20
-493.1993994231
 30
0.0
 11
182.1463049938
 21
-493.1993994231
 31
0.0
  0
LINE
  5
206
330
1F
100
AcDbEntity
  8
0
100
AcDbLine
 10
182.1463049938
 20
-493.1993994231
 30
0.0
 11
182.1463049938
 21
-508.1993994231
 31
0.0
  0
LINE
  5
207
330
1F
100
AcDbEntity
  8
0
100
AcDbLine
 10
182.1463049938
 20
-508.1993994231
 30
0.0
 11
197.1463049938
 21
-508.1993994231
 31
0.0
  0
LINE
  5
208
330
1F
100
AcDbEntity
  8
0
100
AcDbLine
 10
197.1463049938
 20
-508.1993994231
 30
0.0
 11
197.1463049938
 21
-496.3633791015
 31
0.0
  0
ARC
  5
209
330
1F
100
AcDbEntity
  8
0
100
AcDbCircle
 10
74.4649262905
 20
-605.1993994231
 30
0.0
 40
164.0
100
AcDbArc
 50
38.6821874535
 51
41.5776354473
  0
LINE
  5
20A
330
1F
100
AcDbEntity
  8
0
100
AcDbLine
 10
202.4873852577
 20
-502.6993994231
 30
0.0
 11
198.6007876657
 21
-502.6993994231
 31
0.0
  0
LINE
  5
20B
330
1F
100
AcDbEntity
  8
0
100
AcDbLine
 10
198.6007876657
 20
-502.6993994231
 30
0.0
 11
198.6007876657
 21
-517.6993994231
 31
0.0
  0
LINE
  5
20C
330
1F
100
AcDbEntity
  8
0
100
AcDbLine
 10
198.6007876657
 20
-517.6993994231
 30
0.0
 11
213.1723521912
 21
-517.6993994231
 31
0.0
  0
ARC
  5
20D
330
1F
100
AcDbEntity
  8
0
100
AcDbCircle
 10
74.4649262905
 20
-605.1993994231
 30
0.0
 40
164.0
100
AcDbArc
 50
30.9898868677
 51
32.2447205688
  0
LINE
  5
20E
330
1F
100
AcDbEntity
  8
0
100
AcDbLine
 10
215.0552703376
 20
-520.7579690663
 30
0.0
 11
215.0552703376
 21
-527.1993994231
 31
0.0
  0
LINE
  5
20F
330
1F
100
AcDbEntity
  8
0
100
AcDbLine
 10
215.0552703376
 20
-527.1993994231
 30
0.0
 11
218.7285738252
 21
-527.1993994231
 31
0.0
  0
ARC
  5
210
330
1F
100
AcDbEntity
  8
0
100
AcDbCircle
 10
74.4649262905
 20
-605.1993994231
 30
0.0
 40
164.0
100
AcDbArc
 50
26.8219535426
 51
28.3990586119
  0
LINE
  5
211
330
1F
100
AcDbEntity
  8
0
100
AcDbLine
 10
220.8206573023
 20
-531.1993994231
 30
0.0
 11
215.0552703376
 21
-531.1993994231
 31
0.0
  0
LINE
  5
212
330
1F
100
AcDbEntity
  8
0
100
AcDbLine
 10
215.0552703376
 20
-531.1993994231
 30
0.0
 11
215.0552703376
 21
-546.1993994231
 31
0.0
  0
LINE
  5
213
330
1F
100
AcDbEntity
  8
0
100
AcDbLine
 10
215.0552703376
 20
-546.1993994231
 30
0.0
 11
227.4845328774
 21
-546.1993994231
 31
0.0
  0
ARC
  5
214
330
1F
100
AcDbEntity
  8
0
100
AcDbCircle
 10
74.4649262905
 20
-605.1993994231
 30
0.0
 40
164.0
100
AcDbArc
 50
19.5947868458
 51
21.0852178996
  0
LINE
  5
215
330
1F
100
AcDbEntity
  8
0
100
AcDbLine
 10
228.9673534559
 20
-550.1993994231
 30
0.0
 11
215.0552703376
 21
-550.1993994231
 31
0.0
  0
LINE
  5
216
330
1F
100
AcDbEntity
  8
0
100
AcDbLine
 10
215.0552703376
 20
-550.1993994231
 30
0.0
 11
215.0552703376
 21
-565.1993994231
 31
0.0
  0
LINE
  5
217
330
1F
100
AcDbEntity
  8
0
100
AcDbLine
 10
215.0552703376
 20
-565.1993994231
 30
0.0
 11
230.0552703376
 21
-565.1993994231
 31
0.0
  0
LINE
  5
218
330
1F
100
AcDbEntity
  8
0
100
AcDbLine
 10
230.0552703376
 20
-565.1993994231
 30
0.0
 11
230.0552703376
 21
-553.3568991044
 31
0.0
  0
ARC
  5
219
330
1F
100
AcDbEntity
  8
0
100
AcDbCircle
 10
74.4649262905
 20
-605.1993994231
 30
0.0
 40
164.0
100
AcDbArc
 50
16.1074169715
 51
18.4280059962
  0
LINE
  5
21A
330
1F
100
AcDbEntity
  8
0
100
AcDbLine
 10
232.0268188915
 20
-559.6993994231
 30
0.0
 11
231.5097530095
 21
-559.6993994231
 31
0.0
  0
LINE
  5
21B
330
1F
100
AcDbEntity
  8
0
100
AcDbLine
 10
231.5097530095
 20
-559.6993994231
 30
0.0
 11
231.5097530095
 21
-574.6993994231
 31
0.0
  0
LINE
  5
21C
330
1F
100
AcDbEntity
  8
0
100
AcDbLine
 10
231.5097530095
 20
-574.6993994231
 30
0.0
 11
235.6038415158
 21
-574.6993994231
 31
0.0
  0
ARC
  5
21D
330
1F
100
AcDbEntity
  8
0
100
AcDbCircle
 10
74.4649262905
 20
-605.1993994231
 30
0.0
 40
164.0
100
AcDbArc
 50
9.2989285097
 51
10.7180178802
  0
LINE
  5
21E
330
1F
100
AcDbEntity
  8
0
100
AcDbLine
 10
236.3097593869
 20
-578.6993994231
 30
0.0
 11
231.5097530095
 21
-578.6993994231
 31
0.0
  0
LINE
  5
21F
330
1F
100
AcDbEntity
  8
0
100
AcDbLine
 10
231.5097530095
 20
-578.6993994231
 30
0.0
 11
231.5097530095
 21
-593.6993994231
 31
0.0
  0
LINE
  5
220
330
1F
100
AcDbEntity
  8
0
100
AcDbLine
 10
231.5097530095
 20
-593.6993994231
 30
0.0
 11
238.0612282047
 21
-593.6993994231
 31
0.0
  0
ARC
  5
221
330
1F
100
AcDbEntity
  8
0
100
AcDbCircle
 10
74.4649262905
 20
-605.1993994231
 30
0.0
 40
164.0
100
AcDbArc
 50
2.6211480012
 51
4.0209917203
  0
LINE
  5
222
330
1F
100
AcDbEntity
  8
0
100
AcDbLine
 10
238.2933426291
 20
-597.6993994231
 30
0.0
 11
231.5097530095
 21
-597.6993994231
 31
0.0
  0
LINE
  5
223
330
1F
100
AcDbEntity
  8
0
100
AcDbLine
 10
231.5097530095
 20
-597.6993994231
 30
0.0
 11
231.5097530095
 21
-612.6993994231
 31
0.0
  0
LINE
  5
224
330
1F
100
AcDbEntity
  8
0
100
AcDbLine
 10
231.5097530095
 20
-612.6993994231
 30
0.0
 11
238.2933426291
 21
-612.6993994231
 31
0.0
  0
ARC
  5
225
330
1F
100
AcDbEntity
  8
0
100
AcDbCircle
 10
74.4649262905
 20
-605.1993994231
 30
0.0
 40
164.0
100
AcDbArc
 50
355.9790082797
 51
357.3788519988
  0
LINE
  5
226
330
1F
100
AcDbEntity
  8
0
100
AcDbLine
 10
238.0612282047
 20
-616.6993994231
 30
0.0
 11
231.5097530095
 21
-616.6993994231
 31
0.0
  0
LINE
  5
227
330
1F
100
AcDbEntity
  8
0
100
AcDbLine
 10
231.5097530095
 20
-616.6993994231
 30
0.0
 11
231.5097530095
 21
-631.6993994231
 31
0.0
  0
LINE
  5
228
330
1F
100
AcDbEntity
  8
0
100
AcDbLine
 10
231.5097530095
 20
-631.6993994231
 30
0.0
 11
236.3097593869
 21
-631.6993994231
 31
0.0
  0
ARC
  5
229
330
1F
100
AcDbEntity
  8
0
100
AcDbCircle
 10
74.4649262905
 20
-605.1993994231
 30
0.0
 40
164.0
100
AcDbArc
 50
349.2819821198
 51
350.7010714903
  0
LINE
  5
22A
330
1F
100
AcDbEntity
  8
0
100
AcDbLine
 10
235.6038415158
 20
-635.6993994231
 30
0.0
 11
231.5097530095
 21
-635.6993994231
 31
0.0
  0
LINE
  5
22B
330
1F
100
AcDbEntity
  8
0
100
AcDbLine
 10
231.5097530095
 20
-635.6993994231
 30
0.0
 11
231.5097530095
 21
-650.6993994231
 31
0.0
  0
LINE
  5
22C
330
1F
100
AcDbEntity
  8
0
100
AcDbLine
 10
231.5097530095
 20
-650.6993994231
 30
0.0
 11
232.0268188915
 21
-650.6993994231
 31
0.0
  0
ARC
  5
22D
330
1F
100
AcDbEntity
  8
0
100
AcDbCircle
 10
74.4649262905
 20
-605.1993994231
 30
0.0
 40
164.0
100
AcDbArc
 50
341.5719940038
 51
343.8925830285
  0
LINE
  5
22E
330
1F
100
AcDbEntity
  8
0
100
AcDbLine
 10
230.0552703376
 20
-657.0418997418
 30
0.0
 11
230.0552703376
 21
-645.1993994231
 31
0.0
  0
LINE
  5
22F
330
1F
100
AcDbEntity
  8
0
100
AcDbLine
 10
230.0552703376
 20
-645.1993994231
 30
0.0
 11
215.0552703376
 21
-645.1993994231
 31
0.0
  0
LINE
  5
230
330
1F
100
AcDbEntity
  8
0
100
AcDbLine
 10
215.0552703376
 20
-645.1993994231
 30
0.0
 11
215.0552703376
 21
-660.1993994231
 31
0.0
  0
LINE
  5
231
330
1F
100
AcDbEntity
  8
0
100
AcDbLine
 10
215.0552703376
 20
-660.1993994231
 30
0.0
 11
228.9673534559
 21
-660.1993994231
 31
0.0
  0
ARC
  5
232
330
1F
100
AcDbEntity
  8
0
100
AcDbCircle
 10
74.4649262905
 20
-605.1993994231
 30
0.0
 40
164.0
100
AcDbArc
 50
338.9147821004
 51
340.4052131542
  0
LINE
  5
233
330
1F
100
AcDbEntity
  8
0
100
AcDbLine
 10
227.4845328774
 20
-664.1993994231
 30
0.0
 11
215.0552703376
 21
-664.1993994231
 31
0.0
  0
LINE
  5
234
330
1F
100
AcDbEntity
  8
0
100
AcDbLine
 10
215.0552703376
 20
-664.1993994231
 30
0.0
 11
215.0552703376
 21
-679.1993994231
 31
0.0
  0
LINE
  5
235
330
1F
100
AcDbEntity
  8
0
100
AcDbLine
 10
215.0552703376
 20
-679.1993994231
 30
0.0
 11
220.8206573023
 21
-679.1993994231
 31
0.0
  0
ARC
  5
236
330
1F
100
AcDbEntity
  8
0
100
AcDbCircle
 10
74.4649262905
 20
-605.1993994231
 30
0.0
 40
164.0
100
AcDbArc
 50
331.6009413881
 51
333.1780464574
  0
LINE
  5
237
330
1F
100
AcDbEntity
  8
0
100
AcDbLine
 10
218.7285738252
 20
-683.1993994231
 30
0.0
 11
215.0552703376
 21
-683.1993994231
 31
0.0
  0
LINE
  5
238
330
1F
100
AcDbEntity
  8
0
100
AcDbLine
 10
215.0552703376
 20
-683.1993994231
 30
0.0
 11
215.0552703376
 21
-689.6408297799
 31
0.0
  0
ARC
  5
239
330
1F
100
AcDbEntity
  8
0
100
AcDbCircle
 10
74.4649262905
 20
-605.1993994231
 30
0.0
 40
164.0000000000001
100
AcDbArc
 50
327.7552794312
 51
329.0101131323
  0
LINE
  5
23A
330
1F
100
AcDbEntity
  8
0
100
AcDbLine
 10
213.1723521912
 20
-692.6993994231
 30
0.0
 11
198.6007876657
 21
-692.6993994231
 31
0.0
  0
LINE
  5
23B
330
1F
100
AcDbEntity
  8
0
100
AcDbLine
 10
198.6007876657
 20
-692.6993994231
 30
0.0
 11
198.6007876657
 21
-707.6993994231
 31
0.0
  0
LINE
  5
23C
330
1F
100
AcDbEntity
  8
0
100
AcDbLine
 10
198.6007876657
 20
-707.6993994231
 30
0.0
 11
202.4873852577
 21
-707.6993994231
 31
0.0
  0
ARC
  5
23D
330
1F
100
AcDbEntity
  8
0
100
AcDbCircle
 10
74.4649262905
 20
-605.1993994231
 30
0.0
 40
164.0000000000001
100
AcDbArc
 50
318.4223645527
 51
321.3178125465
  0
LINE
  5
23E
330
1F
100
AcDbEntity
  8
0
100
AcDbLine
 10
197.1463049938
 20
-714.0354197447
 30
0.0
 11
197.1463049938
 21
-702.1993994231
 31
0.0
  0
LINE
  5
23F
330
1F
100
AcDbEntity
  8
0
100
AcDbLine
 10
197.1463049938
 20
-702.1993994231
 30
0.0
 11
182.1463049938
 21
-702.1993994231
 31
0.0
  0
LINE
  5
240
330
1F
100
AcDbEntity
  8
0
100
AcDbLine
 10
182.1463049938
 20
-702.1993994231
 30
0.0
 11
182.1463049938
 21
-717.1993994231
 31
0.0
  0
LINE
  5
241
330
1F
100
AcDbEntity
  8
0
100
AcDbLine
 10
182.1463049938
 20
-717.1993994231
 30
0.0
 11
194.2647593455
 21
-717.1993994231
 31
0.0
  0
ARC
  5
242
330
1F
100
AcDbEntity
  8
0
100
AcDbCircle
 10
74.4649262905
 20
-605.1993994231
 30
0.0
 40
164.0
100
AcDbArc
 50
314.9829578278
 51
316.9272186532
  0
LINE
  5
243
330
1F
100
AcDbEntity
  8
0
100
AcDbLine
 10
190.39594026
 20
-721.1993994231
 30
0.0
 11
182.1463049938
 21
-721.1993994231
 31
0.0
  0
LINE
  5
244
330
1F
100
AcDbEntity
  8
0
100
AcDbLine
 10
182.1463049938
 20
-721.1993994231
 30
0.0
 11
182.1463049938
 21
-728.8954813358
 31
0.0
  0
ARC
  5
245
330
1F
100
AcDbEntity
  8
0
100
AcDbCircle
 10
74.4649262905
 20
-605.1993994231
 30
0.0
 40
164.0
100
AcDbArc
 50
310.0713044631
 51
311.0406089913
  0
LINE
  5
246
330
1F
100
AcDbEntity
  8
0
100
AcDbLine
 10
180.0383604489
 20
-730.6993994231
 30
0.0
 11
165.6918223219
 21
-730.6993994231
 31
0.0
  0
LINE
  5
247
330
1F
100
AcDbEntity
  8
0
100
AcDbLine
 10
165.6918223219
 20
-730.6993994231
 30
0.0
 11
165.6918223219
 21
-741.4845909901
 31
0.0
  0
ARC
  5
248
330
1F
100
AcDbEntity
  8
0
100
AcDbCircle
 10
74.4649262905
 20
-605.1993994231
 30
0.0
 40
164.0
100
AcDbArc
 50
303.1883289281
 51
303.7976520105
  0
LINE
  5
249
330
1F
100
AcDbEntity
  8
0
100
AcDbLine
 10
164.23733965
 20
-742.4470361955
 30
0.0
 11
164.23733965
 21
-740.1993994231
 31
0.0
  0
LINE
  5
24A
330
1F
100
AcDbEntity
  8
0
100
AcDbLine
 10
164.23733965
 20
-740.1993994231
 30
0.0
 11
149.23733965
 21
-740.1993994231
 31
0.0
  0
LINE
  5
24B
330
1F
100
AcDbEntity
  8
0
100
AcDbLine
 10
149.23733965
 20
-740.1993994231
 30
0.0
 11
149.23733965
 21
-751.1620186117
 31
0.0
  0
ARC
  5
24C
330
1F
100
AcDbEntity
  8
0
100
AcDbCircle
 10
74.4649262905
 20
-605.1993994231
 30
0.0
 40
164.0
100
AcDbArc
 50
296.5552479019
 51
297.124746183
  0
LINE
  5
24D
330
1F
100
AcDbEntity
  8
0
100
AcDbLine
 10
147.7828569781
 20
-751.8980055504
 30
0.0
 11
147.7828569781
 21
-749.6993994231
 31
0.0
  0
LINE
  5
24E
330
1F
100
AcDbEntity
  8
0
100
AcDbLine
 10
147.7828569781
 20
-749.6993994231
 30
0.0
 11
132.7828569781
 21
-749.6993994231
 31
0.0
  0
LINE
  5
24F
330
1F
100
AcDbEntity
  8
0
100
AcDbLine
 10
132.7828569781
 20
-749.6993994231
 30
0.0
 11
132.7828569781
 21
-758.4802493696
 31
0.0
  0
ARC
  5
250
330
1F
100
AcDbEntity
  8
0
100
AcDbCircle
 10
74.4649262905
 20
-605.1993994231
 30
0.0
 40
164.0000000000001
100
AcDbArc
 50
290.1116443043
 51
290.8300460413
  0
LINE
  5
251
330
1F
100
AcDbEntity
  8
0
100
AcDbLine
 10
130.85641501
 20
-759.1993994231
 30
0.0
 11
116.3283743062
 21
-759.1993994231
 31
0.0
  0
LINE
  5
252
330
1F
100
AcDbEntity
  8
0
100
AcDbLine
 10
116.3283743062
 20
-759.1993994231
 30
0.0
 11
116.3283743062
 21
-763.766267716
 31
0.0
  0
ARC
  5
253
330
1F
100
AcDbEntity
  8
0
100
AcDbCircle
 10
74.4649262905
 20
-605.1993994231
 30
0.0
 40
164.0
100
AcDbArc
 50
284.2643556964
 51
284.7892838776
  0
LINE
  5
254
330
1F
100
AcDbEntity
  8
0
100
AcDbLine
 10
114.8738916343
 20
-764.1431489694
 30
0.0
 11
114.8738916343
 21
-749.6993994231
 31
0.0
  0
LINE
  5
255
330
1F
100
AcDbEntity
  8
0
100
AcDbLine
 10
114.8738916343
 20
-749.6993994231
 30
0.0
 11
99.8738916343
 21
-749.6993994231
 31
0.0
  0
LINE
  5
256
330
1F
100
AcDbEntity
  8
0
100
AcDbLine
 10
99.8738916343
 20
-749.6993994231
 30
0.0
 11
99.8738916343
 21
-764.6993994231
 31
0.0
  0
LINE
  5
257
330
1F
100
AcDbEntity
  8
0
100
AcDbLine
 10
99.8738916343
 20
-764.6993994231
 30
0.0
 11
112.6192183164
 21
-764.6993994231
 31
0.0
  0
ARC
  5
258
330
1F
100
AcDbEntity
  8
0
100
AcDbCircle
 10
74.4649262905
 20
-605.1993994231
 30
0.0
 40
164.0
100
AcDbArc
 50
278.3988932157
 51
283.453028064
  0
LINE
  5
259
330
1F
100
AcDbEntity
  8
0
100
AcDbLine
 10
98.4194089624
 20
-767.4405247888
 30
0.0
 11
98.4194089624
 21
-759.1993994231
 31
0.0
  0
LINE
  5
25A
330
1F
100
AcDbEntity
  8
0
100
AcDbLine
 10
98.4194089624
 20
-759.1993994231
 30
0.0
 11
83.4194089624
 21
-759.1993994231
 31
0.0
  0
LINE
  5
25B
330
1F
100
AcDbEntity
  8
0
100
AcDbLine
 10
83.4194089624
 20
-759.1993994231
 30
0.0
 11
83.4194089624
 21
-768.9547573204
 31
0.0
  0
ARC
  5
25C
330
1F
100
AcDbEntity
  8
0
100
AcDbCircle
 10
74.4649262905
 20
-605.1993994231
 30
0.0
 40
164.0
100
AcDbArc
 50
272.6211480012
 51
273.1299349279
  0
LINE
  5
25D
330
1F
100
AcDbEntity
  8
0
100
AcDbLine
 10
81.9649262905
 20
-769.0278157616
 30
0.0
 11
81.9649262905
 21
-768.6993994231
 31
0.0
  0
LINE
  5
25E
330
1F
100
AcDbEntity
  8
0
100
AcDbLine
 10
81.9649262905
 20
-768.6993994231
 30
0.0
 11
66.9649262905
 21
-768.6993994231
 31
0.0
  0
LINE
  5
25F
330
1F
100
AcDbEntity
  8
0
100
AcDbLine
 10
66.9649262905
 20
-768.6993994231
 30
0.0
 11
66.9649262905
 21
-769.0278157616
 31
0.0
  0
ARC
  5
260
330
1F
100
AcDbEntity
  8
0
100
AcDbCircle
 10
74.4649262905
 20
-605.1993994231
 30
0.0
 40
164.0
100
AcDbArc
 50
266.8700650721
 51
267.3788519988
  0
LINE
  5
261
330
1F
100
AcDbEntity
  8
0
100
AcDbLine
 10
65.5104436186
 20
-768.9547573204
 30
0.0
 11
65.5104436186
 21
-759.1993994231
 31
0.0
  0
LINE
  5
262
330
1F
100
AcDbEntity
  8
0
100
AcDbLine
 10
65.5104436186
 20
-759.1993994231
 30
0.0
 11
50.5104436186
 21
-759.1993994231
 31
0.0
  0
LINE
  5
263
330
1F
100
AcDbEntity
  8
0
100
AcDbLine
 10
50.5104436186
 20
-759.1993994231
 30
0.0
 11
50.5104436186
 21
-767.4405247888
 31
0.0
  0
ARC
  5
264
330
1F
100
AcDbEntity
  8
0
100
AcDbCircle
 10
74.4649262905
 20
-605.1993994231
 30
0.0
 40
164.0
100
AcDbArc
 50
256.546971936
 51
261.6011067843
  0
LINE
  5
265
330
1F
100
AcDbEntity
  8
0
100
AcDbLine
 10
36.3106342646
 20
-764.6993994231
 30
0.0
 11
49.0559609467
 21
-764.6993994231
 31
0.0
  0
LINE
  5
266
330
1F
100
AcDbEntity
  8
0
100
AcDbLine
 10
49.0559609467
 20
-764.6993994231
 30
0.0
 11
49.0559609467
 21
-749.6993994231
 31
0.0
  0
LINE
  5
267
330
1F
100
AcDbEntity
  8
0
100
AcDbLine
 10
49.0559609467
 20
-749.6993994231
 30
0.0
 11
34.0559609467
 21
-749.6993994231
 31
0.0
  0
LINE
  5
268
330
1F
100
AcDbEntity
  8
0
100
AcDbLine
 10
34.0559609467
 20
-749.6993994231
 30
0.0
 11
34.0559609467
 21
-764.1431489694
 31
0.0
  0
ARC
  5
269
330
1F
100
AcDbEntity
  8
0
100
AcDbCircle
 10
74.4649262905
 20
-605.1993994231
 30
0.0
 40
164.0
100
AcDbArc
 50
255.2107161224
 51
255.7356443036
  0
LINE
  5
26A
330
1F
100
AcDbEntity
  8
0
100
AcDbLine
 10
32.6014782748
 20
-763.766267716
 30
0.0
 11
32.6014782748
 21
-759.1993994231
 31
0.0
  0
LINE
  5
26B
330
1F
100
AcDbEntity
  8
0
100
AcDbLine
 10
32.6014782748
 20
-759.1993994231
 30
0.0
 11
18.073437571
 21
-759.1993994231
 31
0.0
  0
ARC
  5
26C
330
1F
100
AcDbEntity
  8
0
100
AcDbCircle
 10
74.4649262905
 20
-605.1993994231
 30
0.0
 40
164.0000000000001
100
AcDbArc
 50
249.1699539587
 51
249.8883556957
  0
LINE
  5
26D
330
1F
100
AcDbEntity
  8
0
100
AcDbLine
 10
32.6014782748
 20
-740.1993994231
 30
0.0
 11
17.6014782748
 21
-740.1993994231
 31
0.0
  0
LINE
  5
26E
330
1F
100
AcDbEntity
  8
0
100
AcDbLine
 10
17.6014782748
 20
-740.1993994231
 30
0.0
 11
17.6014782748
 21
-755.1993994231
 31
0.0
  0
LINE
  5
26F
330
1F
100
AcDbEntity
  8
0
100
AcDbLine
 10
17.6014782748
 20
-755.1993994231
 30
0.0
 11
32.6014782748
 21
-755.1993994231
 31
0.0
  0
LINE
  5
270
330
1F
100
AcDbEntity
  8
0
100
AcDbLine
 10
32.6014782748
 20
-755.1993994231
 30
0.0
 11
32.6014782748
 21
-740.1993994231
 31
0.0
  0
LINE
  5
271
330
1F
100
AcDbEntity
  8
0
100
AcDbLine
 10
16.1469956029
 20
-730.6993994231
 30
0.0
 11
1.1469956029
 21
-730.6993994231
 31
0.0
  0
LINE
  5
272
330
1F
100
AcDbEntity
  8
0
100
AcDbLine
 10
1.1469956029
 20
-730.6993994231
 30
0.0
 11
1.1469956029
 21
-745.6993994231
 31
0.0
  0
LINE
  5
273
330
1F
100
AcDbEntity
  8
0
100
AcDbLine
 10
1.1469956029
 20
-745.6993994231
 30
0.0
 11
16.1469956029
 21
-745.6993994231
 31
0.0
  0
LINE
  5
274
330
1F
100
AcDbEntity
  8
0
100
AcDbLine
 10
16.1469956029
 20
-745.6993994231
 30
0.0
 11
16.1469956029
 21
-730.6993994231
 31
0.0
  0
LINE
  5
275
330
1F
100
AcDbEntity
  8
0
100
AcDbLine
 10
-0.307487069
 20
-721.1993994231
 30
0.0
 11
-15.307487069
 21
-721.1993994231
 31
0.0
  0
LINE
  5
276
330
1F
100
AcDbEntity
  8
0
100
AcDbLine
 10
-15.307487069
 20
-721.1993994231
 30
0.0
 11
-15.307487069
 21
-736.1993994231
 31
0.0
  0
LINE
  5
277
330
1F
100
AcDbEntity
  8
0
100
AcDbLine
 10
-15.307487069
 20
-736.1993994231
 30
0.0
 11
-0.307487069
 21
-736.1993994231
 31
0.0
  0
LINE
  5
278
330
1F
100
AcDbEntity
  8
0
100
AcDbLine
 10
-0.307487069
 20
-736.1993994231
 30
0.0
 11
-0.307487069
 21
-721.1993994231
 31
0.0
  0
LINE
  5
279
330
1F
100
AcDbEntity
  8
0
100
AcDbLine
 10
-16.7619697409
 20
-711.6993994231
 30
0.0
 11
-31.7619697409
 21
-711.6993994231
 31
0.0
  0
LINE
  5
27A
330
1F
100
AcDbEntity
  8
0
100
AcDbLine
 10
-31.7619697409
 20
-711.6993994231
 30
0.0
 11
-31.7619697409
 21
-726.6993994231
 31
0.0
  0
LINE
  5
27B
330
1F
100
AcDbEntity
  8
0
100
AcDbLine
 10
-31.7619697409
 20
-726.6993994231
 30
0.0
 11
-16.7619697409
 21
-726.6993994231
 31
0.0
  0
LINE
  5
27C
330
1F
100
AcDbEntity
  8
0
100
AcDbLine
 10
-16.7619697409
 20
-726.6993994231
 30
0.0
 11
-16.7619697409
 21
-711.6993994231
 31
0.0
  0
LINE
  5
27D
330
1F
100
AcDbEntity
  8
0
100
AcDbLine
 10
81.9649262905
 20
-749.6993994231
 30
0.0
 11
66.9649262905
 21
-749.6993994231
 31
0.0
  0
LINE
  5
27E
330
1F
100
AcDbEntity
  8
0
100
AcDbLine
 10
66.9649262905
 20
-749.6993994231
 30
0.0
 11
66.9649262905
 21
-764.6993994231
 31
0.0
  0
LINE
  5
27F
330
1F
100
AcDbEntity
  8
0
100
AcDbLine
 10
66.9649262905
 20
-764.6993994231
 30
0.0
 11
81.9649262905
 21
-764.6993994231
 31
0.0
  0
LINE
  5
280
330
1F
100
AcDbEntity
  8
0
100
AcDbLine
 10
81.9649262905
 20
-764.6993994231
 30
0.0
 11
81.9649262905
 21
-749.6993994231
 31
0.0
  0
LINE
  5
281
330
1F
100
AcDbEntity
  8
0
100
AcDbLine
 10
65.5104436186
 20
-740.1993994231
 30
0.0
 11
50.5104436186
 21
-740.1993994231
 31
0.0
  0
LINE
  5
282
330
1F
100
AcDbEntity
  8
0
100
AcDbLine
 10
50.5104436186
 20
-740.1993994231
 30
0.0
 11
50.5104436186
 21
-755.1993994231
 31
0.0
  0
LINE
  5
283
330
1F
100
AcDbEntity
  8
0
100
AcDbLine
 10
50.5104436186
 20
-755.1993994231
 30
0.0
 11
65.5104436186
 21
-755.1993994231
 31
0.0
  0
LINE
  5
284
330
1F
100
AcDbEntity
  8
0
100
AcDbLine
 10
65.5104436186
 20
-755.1993994231
 30
0.0
 11
65.5104436186
 21
-740.1993994231
 31
0.0
  0
LINE
  5
285
330
1F
100
AcDbEntity
  8
0
100
AcDbLine
 10
49.0559609467
 20
-730.6993994231
 30
0.0
 11
34.0559609467
 21
-730.6993994231
 31
0.0
  0
LINE
  5
286
330
1F
100
AcDbEntity
  8
0
100
AcDbLine
 10
34.0559609467
 20
-730.6993994231
 30
0.0
 11
34.0559609467
 21
-745.6993994231
 31
0.0
  0
LINE
  5
287
330
1F
100
AcDbEntity
  8
0
100
AcDbLine
 10
34.0559609467
 20
-745.6993994231
 30
0.0
 11
49.0559609467
 21
-745.6993994231
 31
0.0
  0
LINE
  5
288
330
1F
100
AcDbEntity
  8
0
100
AcDbLine
 10
49.0559609467
 20
-745.6993994231
 30
0.0
 11
49.0559609467
 21
-730.6993994231
 31
0.0
  0
LINE
  5
289
330
1F
100
AcDbEntity
  8
0
100
AcDbLine
 10
32.6014782748
 20
-721.1993994231
 30
0.0
 11
17.6014782748
 21
-721.1993994231
 31
0.0
  0
LINE
  5
28A
330
1F
100
AcDbEntity
  8
0
100
AcDbLine
 10
17.6014782748
 20
-721.1993994231
 30
0.0
 11
17.6014782748
 21
-736.1993994231
 31
0.0
  0
LINE
  5
28B
330
1F
100
AcDbEntity
  8
0
100
AcDbLine
 10
17.6014782748
 20
-736.1993994231
 30
0.0
 11
32.6014782748
 21
-736.1993994231
 31
0.0
  0
LINE
  5
28C
330
1F
100
AcDbEntity
  8
0
100
AcDbLine
 10
32.6014782748
 20
-736.1993994231
 30
0.0
 11
32.6014782748
 21
-721.1993994231
 31
0.0
  0
LINE
  5
28D
330
1F
100
AcDbEntity
  8
0
100
AcDbLine
 10
16.1469956029
 20
-711.6993994231
 30
0.0
 11
1.1469956029
 21
-711.6993994231
 31
0.0
  0
LINE
  5
28E
330
1F
100
AcDbEntity
  8
0
100
AcDbLine
 10
1.1469956029
 20
-711.6993994231
 30
0.0
 11
1.1469956029
 21
-726.6993994231
 31
0.0
  0
LINE
  5
28F
330
1F
100
AcDbEntity
  8
0
100
AcDbLine
 10
1.1469956029
 20
-726.6993994231
 30
0.0
 11
16.1469956029
 21
-726.6993994231
 31
0.0
  0
LINE
  5
290
330
1F
100
AcDbEntity
  8
0
100
AcDbLine
 10
16.1469956029
 20
-726.6993994231
 30
0.0
 11
16.1469956029
 21
-711.6993994231
 31
0.0
  0
LINE
  5
291
330
1F
100
AcDbEntity
  8
0
100
AcDbLine
 10
-0.307487069
 20
-702.1993994231
 30
0.0
 11
-15.307487069
 21
-702.1993994231
 31
0.0
  0
LINE
  5
292
330
1F
100
AcDbEntity
  8
0
100
AcDbLine
 10
-15.307487069
 20
-702.1993994231
 30
0.0
 11
-15.307487069
 21
-717.1993994231
 31
0.0
  0
LINE
  5
293
330
1F
100
AcDbEntity
  8
0
100
AcDbLine
 10
-15.307487069
 20
-717.1993994231
 30
0.0
 11
-0.307487069
 21
-717.1993994231
 31
0.0
  0
LINE
  5
294
330
1F
100
AcDbEntity
  8
0
100
AcDbLine
 10
-0.307487069
 20
-717.1993994231
 30
0.0
 11
-0.307487069
 21
-702.1993994231
 31
0.0
  0
LINE
  5
295
330
1F
100
AcDbEntity
  8
0
100
AcDbLine
 10
-16.7619697409
 20
-692.6993994231
 30
0.0
 11
-31.7619697409
 21
-692.6993994231
 31
0.0
  0
LINE
  5
296
330
1F
100
AcDbEntity
  8
0
100
AcDbLine
 10
-31.7619697409
 20
-692.6993994231
 30
0.0
 11
-31.7619697409
 21
-707.6993994231
 31
0.0
  0
LINE
  5
297
330
1F
100
AcDbEntity
  8
0
100
AcDbLine
 10
-31.7619697409
 20
-707.6993994231
 30
0.0
 11
-16.7619697409
 21
-707.6993994231
 31
0.0
  0
LINE
  5
298
330
1F
100
AcDbEntity
  8
0
100
AcDbLine
 10
-16.7619697409
 20
-707.6993994231
 30
0.0
 11
-16.7619697409
 21
-692.6993994231
 31
0.0
  0
LINE
  5
299
330
1F
100
AcDbEntity
  8
0
100
AcDbLine
 10
-33.2164524128
 20
-683.1993994231
 30
0.0
 11
-48.2164524128
 21
-683.1993994231
 31
0.0
  0
LINE
  5
29A
330
1F
100
AcDbEntity
  8
0
100
AcDbLine
 10
-48.2164524128
 20
-683.1993994231
 30
0.0
 11
-48.2164524128
 21
-698.1993994231
 31
0.0
  0
LINE
  5
29B
330
1F
100
AcDbEntity
  8
0
100
AcDbLine
 10
-48.2164524128
 20
-698.1993994231
 30
0.0
 11
-33.2164524128
 21
-698.1993994231
 31
0.0
  0
LINE
  5
29C
330
1F
100
AcDbEntity
  8
0
100
AcDbLine
 10
-33.2164524128
 20
-698.1993994231
 30
0.0
 11
-33.2164524128
 21
-683.1993994231
 31
0.0
  0
LINE
  5
29D
330
1F
100
AcDbEntity
  8
0
100
AcDbLine
 10
-49.6709350847
 20
-673.6993994231
 30
0.0
 11
-64.6709350847
 21
-673.6993994231
 31
0.0
  0
LINE
  5
29E
330
1F
100
AcDbEntity
  8
0
100
AcDbLine
 10
-64.6709350847
 20
-673.6993994231
 30
0.0
 11
-64.6709350847
 21
-688.6993994231
 31
0.0
  0
LINE
  5
29F
330
1F
100
AcDbEntity
  8
0
100
AcDbLine
 10
-64.6709350847
 20
-688.6993994231
 30
0.0
 11
-49.6709350847
 21
-688.6993994231
 31
0.0
  0
LINE
  5
2A0
330
1F
100
AcDbEntity
  8
0
100
AcDbLine
 10
-49.6709350847
 20
-688.6993994231
 30
0.0
 11
-49.6709350847
 21
-673.6993994231
 31
0.0
  0
LINE
  5
2A1
330
1F
100
AcDbEntity
  8
0
100
AcDbLine
 10
98.4194089624
 20
-740.1993994231
 30
0.0
 11
83.4194089624
 21
-740.1993994231
 31
0.0
  0
LINE
  5
2A2
330
1F
100
AcDbEntity
  8
0
100
AcDbLine
 10
83.4194089624
 20
-740.1993994231
 30
0.0
 11
83.4194089624
 21
-755.1993994231
 31
0.0
  0
LINE
  5
2A3
330
1F
100
AcDbEntity
  8
0
100
AcDbLine
 10
83.4194089624
 20
-755.1993994231
 30
0.0
 11
98.4194089624
 21
-755.1993994231
 31
0.0
  0
LINE
  5
2A4
330
1F
100
AcDbEntity
  8
0
100
AcDbLine
 10
98.4194089624
 20
-755.1993994231
 30
0.0
 11
98.4194089624
 21
-740.1993994231
 31
0.0
  0
LINE
  5
2A5
330
1F
100
AcDbEntity
  8
0
100
AcDbLine
 10
81.9649262905
 20
-730.6993994231
 30
0.0
 11
66.9649262905
 21
-730.6993994231
 31
0.0
  0
LINE
  5
2A6
330
1F
100
AcDbEntity
  8
0
100
AcDbLine
 10
66.9649262905
 20
-730.6993994231
 30
0.0
 11
66.9649262905
 21
-745.6993994231
 31
0.0
  0
LINE
  5
2A7
330
1F
100
AcDbEntity
  8
0
100
AcDbLine
 10
66.9649262905
 20
-745.6993994231
 30
0.0
 11
81.9649262905
 21
-745.6993994231
 31
0.0
  0
LINE
  5
2A8
330
1F
100
AcDbEntity
  8
0
100
AcDbLine
 10
81.9649262905
 20
-745.6993994231
 30
0.0
 11
81.9649262905
 21
-730.6993994231
 31
0.0
  0
LINE
  5
2A9
330
1F
100
AcDbEntity
  8
0
100
AcDbLine
 10
65.5104436186
 20
-721.1993994231
 30
0.0
 11
50.5104436186
 21
-721.1993994231
 31
0.0
  0
LINE
  5
2AA
330
1F
100
AcDbEntity
  8
0
100
AcDbLine
 10
50.5104436186
 20
-721.1993994231
 30
0.0
 11
50.5104436186
 21
-736.1993994231
 31
0.0
  0
LINE
  5
2AB
330
1F
100
AcDbEntity
  8
0
100
AcDbLine
 10
50.5104436186
 20
-736.1993994231
 30
0.0
 11
65.5104436186
 21
-736.1993994231
 31
0.0
  0
LINE
  5
2AC
330
1F
100
AcDbEntity
  8
0
100
AcDbLine
 10
65.5104436186
 20
-736.1993994231
 30
0.0
 11
65.5104436186
 21
-721.1993994231
 31
0.0
  0
LINE
  5
2AD
330
1F
100
AcDbEntity
  8
0
100
AcDbLine
 10
49.0559609467
 20
-711.6993994231
 30
0.0
 11
34.0559609467
 21
-711.6993994231
 31
0.0
  0
LINE
  5
2AE
330
1F
100
AcDbEntity
  8
0
100
AcDbLine
 10
34.0559609467
 20
-711.6993994231
 30
0.0
 11
34.0559609467
 21
-726.6993994231
 31
0.0
  0
LINE
  5
2AF
330
1F
100
AcDbEntity
  8
0
100
AcDbLine
 10
34.0559609467
 20
-726.6993994231
 30
0.0
 11
49.0559609467
 21
-726.6993994231
 31
0.0
  0
LINE
  5
2B0
330
1F
100
AcDbEntity
  8
0
100
AcDbLine
 10
49.0559609467
 20
-726.6993994231
 30
0.0
 11
49.0559609467
 21
-711.6993994231
 31
0.0
  0
LINE
  5
2B1
330
1F
100
AcDbEntity
  8
0
100
AcDbLine
 10
32.6014782748
 20
-702.1993994231
 30
0.0
 11
17.6014782748
 21
-702.1993994231
 31
0.0
  0
LINE
  5
2B2
330
1F
100
AcDbEntity
  8
0
100
AcDbLine
 10
17.6014782748
 20
-702.1993994231
 30
0.0
 11
17.6014782748
 21
-717.1993994231
 31
0.0
  0
LINE
  5
2B3
330
1F
100
AcDbEntity
  8
0
100
AcDbLine
 10
17.6014782748
 20
-717.1993994231
 30
0.0
 11
32.6014782748
 21
-717.1993994231
 31
0.0
  0
LINE
  5
2B4
330
1F
100
AcDbEntity
  8
0
100
AcDbLine
 10
32.6014782748
 20
-717.1993994231
 30
0.0
 11
32.6014782748
 21
-702.1993994231
 31
0.0
  0
LINE
  5
2B5
330
1F
100
AcDbEntity
  8
0
100
AcDbLine
 10
16.1469956029
 20
-692.6993994231
 30
0.0
 11
1.1469956029
 21
-692.6993994231
 31
0.0
  0
LINE
  5
2B6
330
1F
100
AcDbEntity
  8
0
100
AcDbLine
 10
1.1469956029
 20
-692.6993994231
 30
0.0
 11
1.1469956029
 21
-707.6993994231
 31
0.0
  0
LINE
  5
2B7
330
1F
100
AcDbEntity
  8
0
100
AcDbLine
 10
1.1469956029
 20
-707.6993994231
 30
0.0
 11
16.1469956029
 21
-707.6993994231
 31
0.0
  0
LINE
  5
2B8
330
1F
100
AcDbEntity
  8
0
100
AcDbLine
 10
16.1469956029
 20
-707.6993994231
 30
0.0
 11
16.1469956029
 21
-692.6993994231
 31
0.0
  0
LINE
  5
2B9
330
1F
100
AcDbEntity
  8
0
100
AcDbLine
 10
-0.307487069
 20
-683.1993994231
 30
0.0
 11
-15.307487069
 21
-683.1993994231
 31
0.0
  0
LINE
  5
2BA
330
1F
100
AcDbEntity
  8
0
100
AcDbLine
 10
-15.307487069
 20
-683.1993994231
 30
0.0
 11
-15.307487069
 21
-698.1993994231
 31
0.0
  0
LINE
  5
2BB
330
1F
100
AcDbEntity
  8
0
100
AcDbLine
 10
-15.307487069
 20
-698.1993994231
 30
0.0
 11
-0.307487069
 21
-698.1993994231
 31
0.0
  0
LINE
  5
2BC
330
1F
100
AcDbEntity
  8
0
100
AcDbLine
 10
-0.307487069
 20
-698.1993994231
 30
0.0
 11
-0.307487069
 21
-683.1993994231
 31
0.0
  0
LINE
  5
2BD
330
1F
100
AcDbEntity
  8
0
100
AcDbLine
 10
-16.7619697409
 20
-673.6993994231
 30
0.0
 11
-31.7619697409
 21
-673.6993994231
 31
0.0
  0
LINE
  5
2BE
330
1F
100
AcDbEntity
  8
0
100
AcDbLine
 10
-31.7619697409
 20
-673.6993994231
 30
0.0
 11
-31.7619697409
 21
-688.6993994231
 31
0.0
  0
LINE
  5
2BF
330
1F
100
AcDbEntity
  8
0
100
AcDbLine
 10
-31.7619697409
 20
-688.6993994231
 30
0.0
 11
-16.7619697409
 21
-688.6993994231
 31
0.0
  0
LINE
  5
2C0
330
1F
100
AcDbEntity
  8
0
100
AcDbLine
 10
-16.7619697409
 20
-688.6993994231
 30
0.0
 11
-16.7619697409
 21
-673.6993994231
 31
0.0
  0
LINE
  5
2C1
330
1F
100
AcDbEntity
  8
0
100
AcDbLine
 10
-33.2164524128
 20
-664.1993994231
 30
0.0
 11
-48.2164524128
 21
-664.1993994231
 31
0.0
  0
LINE
  5
2C2
330
1F
100
AcDbEntity
  8
0
100
AcDbLine
 10
-48.2164524128
 20
-664.1993994231
 30
0.0
 11
-48.2164524128
 21
-679.1993994231
 31
0.0
  0
LINE
  5
2C3
330
1F
100
AcDbEntity
  8
0
100
AcDbLine
 10
-48.2164524128
 20
-679.1993994231
 30
0.0
 11
-33.2164524128
 21
-679.1993994231
 31
0.0
  0
LINE
  5
2C4
330
1F
100
AcDbEntity
  8
0
100
AcDbLine
 10
-33.2164524128
 20
-679.1993994231
 30
0.0
 11
-33.2164524128
 21
-664.1993994231
 31
0.0
  0
LINE
  5
2C5
330
1F
100
AcDbEntity
  8
0
100
AcDbLine
 10
-49.6709350847
 20
-654.6993994231
 30
0.0
 11
-64.6709350847
 21
-654.6993994231
 31
0.0
  0
LINE
  5
2C6
330
1F
100
AcDbEntity
  8
0
100
AcDbLine
 10
-64.6709350847
 20
-654.6993994231
 30
0.0
 11
-64.6709350847
 21
-669.6993994231
 31
0.0
  0
LINE
  5
2C7
330
1F
100
AcDbEntity
  8
0
100
AcDbLine
 10
-64.6709350847
 20
-669.6993994231
 30
0.0
 11
-49.6709350847
 21
-669.6993994231
 31
0.0
  0
LINE
  5
2C8
330
1F
100
AcDbEntity
  8
0
100
AcDbLine
 10
-49.6709350847
 20
-669.6993994231
 30
0.0
 11
-49.6709350847
 21
-654.6993994231
 31
0.0
  0
LINE
  5
2C9
330
1F
100
AcDbEntity
  8
0
100
AcDbLine
 10
131.3283743062
 20
-740.1993994231
 30
0.0
 11
116.3283743062
 21
-740.1993994231
 31
0.0
  0
LINE
  5
2CA
330
1F
100
AcDbEntity
  8
0
100
AcDbLine
 10
116.3283743062
 20
-740.1993994231
 30
0.0
 11
116.3283743062
 21
-755.1993994231
 31
0.0
  0
LINE
  5
2CB
330
1F
100
AcDbEntity
  8
0
100
AcDbLine
 10
116.3283743062
 20
-755.1993994231
 30
0.0
 11
131.3283743062
 21
-755.1993994231
 31
0.0
  0
LINE
  5
2CC
330
1F
100
AcDbEntity
  8
0
100
AcDbLine
 10
131.3283743062
 20
-755.1993994231
 30
0.0
 11
131.3283743062
 21
-740.1993994231
 31
0.0
  0
LINE
  5
2CD
330
1F
100
AcDbEntity
  8
0
100
AcDbLine
 10
114.8738916343
 20
-730.6993994231
 30
0.0
 11
99.8738916343
 21
-730.6993994231
 31
0.0
  0
LINE
  5
2CE
330
1F
100
AcDbEntity
  8
0
100
AcDbLine
 10
99.8738916343
 20
-730.6993994231
 30
0.0
 11
99.8738916343
 21
-745.6993994231
 31
0.0
  0
LINE
  5
2CF
330
1F
100
AcDbEntity
  8
0
100
AcDbLine
 10
99.8738916343
 20
-745.6993994231
 30
0.0
 11
114.8738916343
 21
-745.6993994231
 31
0.0
  0
LINE
  5
2D0
330
1F
100
AcDbEntity
  8
0
100
AcDbLine
 10
114.8738916343
 20
-745.6993994231
 30
0.0
 11
114.8738916343
 21
-730.6993994231
 31
0.0
  0
LINE
  5
2D1
330
1F
100
AcDbEntity
  8
0
100
AcDbLine
 10
98.4194089624
 20
-721.1993994231
 30
0.0
 11
83.4194089624
 21
-721.1993994231
 31
0.0
  0
LINE
  5
2D2
330
1F
100
AcDbEntity
  8
0
100
AcDbLine
 10
83.4194089624
 20
-721.1993994231
 30
0.0
 11
83.4194089624
 21
-736.1993994231
 31
0.0
  0
LINE
  5
2D3
330
1F
100
AcDbEntity
  8
0
100
AcDbLine
 10
83.4194089624
 20
-736.1993994231
 30
0.0
 11
98.4194089624
 21
-736.1993994231
 31
0.0
  0
LINE
  5
2D4
330
1F
100
AcDbEntity
  8
0
100
AcDbLine
 10
98.4194089624
 20
-736.1993994231
 30
0.0
 11
98.4194089624
 21
-721.1993994231
 31
0.0
  0
LINE
  5
2D5
330
1F
100
AcDbEntity
  8
0
100
AcDbLine
 10
81.9649262905
 20
-711.6993994231
 30
0.0
 11
66.9649262905
 21
-711.6993994231
 31
0.0
  0
LINE
  5
2D6
330
1F
100
AcDbEntity
  8
0
100
AcDbLine
 10
66.9649262905
 20
-711.6993994231
 30
0.0
 11
66.9649262905
 21
-726.6993994231
 31
0.0
  0
LINE
  5
2D7
330
1F
100
AcDbEntity
  8
0
100
AcDbLine
 10
66.9649262905
 20
-726.6993994231
 30
0.0
 11
81.9649262905
 21
-726.6993994231
 31
0.0
  0
LINE
  5
2D8
330
1F
100
AcDbEntity
  8
0
100
AcDbLine
 10
81.9649262905
 20
-726.6993994231
 30
0.0
 11
81.9649262905
 21
-711.6993994231
 31
0.0
  0
LINE
  5
2D9
330
1F
100
AcDbEntity
  8
0
100
AcDbLine
 10
65.5104436186
 20
-702.1993994231
 30
0.0
 11
50.5104436186
 21
-702.1993994231
 31
0.0
  0
LINE
  5
2DA
330
1F
100
AcDbEntity
  8
0
100
AcDbLine
 10
50.5104436186
 20
-702.1993994231
 30
0.0
 11
50.5104436186
 21
-717.1993994231
 31
0.0
  0
LINE
  5
2DB
330
1F
100
AcDbEntity
  8
0
100
AcDbLine
 10
50.5104436186
 20
-717.1993994231
 30
0.0
 11
65.5104436186
 21
-717.1993994231
 31
0.0
  0
LINE
  5
2DC
330
1F
100
AcDbEntity
  8
0
100
AcDbLine
 10
65.5104436186
 20
-717.1993994231
 30
0.0
 11
65.5104436186
 21
-702.1993994231
 31
0.0
  0
LINE
  5
2DD
330
1F
100
AcDbEntity
  8
0
100
AcDbLine
 10
49.0559609467
 20
-692.6993994231
 30
0.0
 11
34.0559609467
 21
-692.6993994231
 31
0.0
  0
LINE
  5
2DE
330
1F
100
AcDbEntity
  8
0
100
AcDbLine
 10
34.0559609467
 20
-692.6993994231
 30
0.0
 11
34.0559609467
 21
-707.6993994231
 31
0.0
  0
LINE
  5
2DF
330
1F
100
AcDbEntity
  8
0
100
AcDbLine
 10
34.0559609467
 20
-707.6993994231
 30
0.0
 11
49.0559609467
 21
-707.6993994231
 31
0.0
  0
LINE
  5
2E0
330
1F
100
AcDbEntity
  8
0
100
AcDbLine
 10
49.0559609467
 20
-707.6993994231
 30
0.0
 11
49.0559609467
 21
-692.6993994231
 31
0.0
  0
LINE
  5
2E1
330
1F
100
AcDbEntity
  8
0
100
AcDbLine
 10
32.6014782748
 20
-683.1993994231
 30
0.0
 11
17.6014782748
 21
-683.1993994231
 31
0.0
  0
LINE
  5
2E2
330
1F
100
AcDbEntity
  8
0
100
AcDbLine
 10
17.6014782748
 20
-683.1993994231
 30
0.0
 11
17.6014782748
 21
-698.1993994231
 31
0.0
  0
LINE
  5
2E3
330
1F
100
AcDbEntity
  8
0
100
AcDbLine
 10
17.6014782748
 20
-698.1993994231
 30
0.0
 11
32.6014782748
 21
-698.1993994231
 31
0.0
  0
LINE
  5
2E4
330
1F
100
AcDbEntity
  8
0
100
AcDbLine
 10
32.6014782748
 20
-698.1993994231
 30
0.0
 11
32.6014782748
 21
-683.1993994231
 31
0.0
  0
LINE
  5
2E5
330
1F
100
AcDbEntity
  8
0
100
AcDbLine
 10
16.1469956029
 20
-673.6993994231
 30
0.0
 11
1.1469956029
 21
-673.6993994231
 31
0.0
  0
LINE
  5
2E6
330
1F
100
AcDbEntity
  8
0
100
AcDbLine
 10
1.1469956029
 20
-673.6993994231
 30
0.0
 11
1.1469956029
 21
-688.6993994231
 31
0.0
  0
LINE
  5
2E7
330
1F
100
AcDbEntity
  8
0
100
AcDbLine
 10
1.1469956029
 20
-688.6993994231
 30
0.0
 11
16.1469956029
 21
-688.6993994231
 31
0.0
  0
LINE
  5
2E8
330
1F
100
AcDbEntity
  8
0
100
AcDbLine
 10
16.1469956029
 20
-688.6993994231
 30
0.0
 11
16.1469956029
 21
-673.6993994231
 31
0.0
  0
LINE
  5
2E9
330
1F
100
AcDbEntity
  8
0
100
AcDbLine
 10
-0.307487069
 20
-664.1993994231
 30
0.0
 11
-15.307487069
 21
-664.1993994231
 31
0.0
  0
LINE
  5
2EA
330
1F
100
AcDbEntity
  8
0
100
AcDbLine
 10
-15.307487069
 20
-664.1993994231
 30
0.0
 11
-15.307487069
 21
-679.1993994231
 31
0.0
  0
LINE
  5
2EB
330
1F
100
AcDbEntity
  8
0
100
AcDbLine
 10
-15.307487069
 20
-679.1993994231
 30
0.0
 11
-0.307487069
 21
-679.1993994231
 31
0.0
  0
LINE
  5
2EC
330
1F
100
AcDbEntity
  8
0
100
AcDbLine
 10
-0.307487069
 20
-679.1993994231
 30
0.0
 11
-0.307487069
 21
-664.1993994231
 31
0.0
  0
LINE
  5
2ED
330
1F
100
AcDbEntity
  8
0
100
AcDbLine
 10
-16.7619697409
 20
-654.6993994231
 30
0.0
 11
-31.7619697409
 21
-654.6993994231
 31
0.0
  0
LINE
  5
2EE
330
1F
100
AcDbEntity
  8
0
100
AcDbLine
 10
-31.7619697409
 20
-654.6993994231
 30
0.0
 11
-31.7619697409
 21
-669.6993994231
 31
0.0
  0
LINE
  5
2EF
330
1F
100
AcDbEntity
  8
0
100
AcDbLine
 10
-31.7619697409
 20
-669.6993994231
 30
0.0
 11
-16.7619697409
 21
-669.6993994231
 31
0.0
  0
LINE
  5
2F0
330
1F
100
AcDbEntity
  8
0
100
AcDbLine
 10
-16.7619697409
 20
-669.6993994231
 30
0.0
 11
-16.7619697409
 21
-654.6993994231
 31
0.0
  0
LINE
  5
2F1
330
1F
100
AcDbEntity
  8
0
100
AcDbLine
 10
-33.2164524128
 20
-645.1993994231
 30
0.0
 11
-48.2164524128
 21
-645.1993994231
 31
0.0
  0
LINE
  5
2F2
330
1F
100
AcDbEntity
  8
0
100
AcDbLine
 10
-48.2164524128
 20
-645.1993994231
 30
0.0
 11
-48.2164524128
 21
-660.1993994231
 31
0.0
  0
LINE
  5
2F3
330
1F
100
AcDbEntity
  8
0
100
AcDbLine
 10
-48.2164524128
 20
-660.1993994231
 30
0.0
 11
-33.2164524128
 21
-660.1993994231
 31
0.0
  0
LINE
  5
2F4
330
1F
100
AcDbEntity
  8
0
100
AcDbLine
 10
-33.2164524128
 20
-660.1993994231
 30
0.0
 11
-33.2164524128
 21
-645.1993994231
 31
0.0
  0
LINE
  5
2F5
330
1F
100
AcDbEntity
  8
0
100
AcDbLine
 10
-49.6709350847
 20
-635.6993994231
 30
0.0
 11
-64.6709350847
 21
-635.6993994231
 31
0.0
  0
LINE
  5
2F6
330
1F
100
AcDbEntity
  8
0
100
AcDbLine
 10
-64.6709350847
 20
-635.6993994231
 30
0.0
 11
-64.6709350847
 21
-650.6993994231
 31
0.0
  0
LINE
  5
2F7
330
1F
100
AcDbEntity
  8
0
100
AcDbLine
 10
-64.6709350847
 20
-650.6993994231
 30
0.0
 11
-49.6709350847
 21
-650.6993994231
 31
0.0
  0
LINE
  5
2F8
330
1F
100
AcDbEntity
  8
0
100
AcDbLine
 10
-49.6709350847
 20
-650.6993994231
 30
0.0
 11
-49.6709350847
 21
-635.6993994231
 31
0.0
  0
LINE
  5
2F9
330
1F
100
AcDbEntity
  8
0
100
AcDbLine
 10
-66.1254177566
 20
-626.1993994231
 30
0.0
 11
-81.1254177566
 21
-626.1993994231
 31
0.0
  0
LINE
  5
2FA
330
1F
100
AcDbEntity
  8
0
100
AcDbLine
 10
-81.1254177566
 20
-626.1993994231
 30
0.0
 11
-81.1254177566
 21
-641.1993994231
 31
0.0
  0
LINE
  5
2FB
330
1F
100
AcDbEntity
  8
0
100
AcDbLine
 10
-81.1254177566
 20
-641.1993994231
 30
0.0
 11
-66.1254177566
 21
-641.1993994231
 31
0.0
  0
LINE
  5
2FC
330
1F
100
AcDbEntity
  8
0
100
AcDbLine
 10
-66.1254177566
 20
-641.1993994231
 30
0.0
 11
-66.1254177566
 21
-626.1993994231
 31
0.0
  0
LINE
  5
2FD
330
1F
100
AcDbEntity
  8
0
100
AcDbLine
 10
147.7828569781
 20
-730.6993994231
 30
0.0
 11
132.7828569781
 21
-730.6993994231
 31
0.0
  0
LINE
  5
2FE
330
1F
100
AcDbEntity
  8
0
100
AcDbLine
 10
132.7828569781
 20
-730.6993994231
 30
0.0
 11
132.7828569781
 21
-745.6993994231
 31
0.0
  0
LINE
  5
2FF
330
1F
100
AcDbEntity
  8
0
100
AcDbLine
 10
132.7828569781
 20
-745.6993994231
 30
0.0
 11
147.7828569781
 21
-745.6993994231
 31
0.0
  0
LINE
  5
300
330
1F
100
AcDbEntity
  8
0
100
AcDbLine
 10
147.7828569781
 20
-745.6993994231
 30
0.0
 11
147.7828569781
 21
-730.6993994231
 31
0.0
  0
LINE
  5
301
330
1F
100
AcDbEntity
  8
0
100
AcDbLine
 10
131.3283743062
 20
-721.1993994231
 30
0.0
 11
116.3283743062
 21
-721.1993994231
 31
0.0
  0
LINE
  5
302
330
1F
100
AcDbEntity
  8
0
100
AcDbLine
 10
116.3283743062
 20
-721.1993994231
 30
0.0
 11
116.3283743062
 21
-736.1993994231
 31
0.0
  0
LINE
  5
303
330
1F
100
AcDbEntity
  8
0
100
AcDbLine
 10
116.3283743062
 20
-736.1993994231
 30
0.0
 11
131.3283743062
 21
-736.1993994231
 31
0.0
  0
LINE
  5
304
330
1F
100
AcDbEntity
  8
0
100
AcDbLine
 10
131.3283743062
 20
-736.1993994231
 30
0.0
 11
131.3283743062
 21
-721.1993994231
 31
0.0
  0
LINE
  5
305
330
1F
100
AcDbEntity
  8
0
100
AcDbLine
 10
114.8738916343
 20
-711.6993994231
 30
0.0
 11
99.8738916343
 21
-711.6993994231
 31
0.0
  0
LINE
  5
306
330
1F
100
AcDbEntity
  8
0
100
AcDbLine
 10
99.8738916343
 20
-711.6993994231
 30
0.0
 11
99.8738916343
 21
-726.6993994231
 31
0.0
  0
LINE
  5
307
330
1F
100
AcDbEntity
  8
0
100
AcDbLine
 10
99.8738916343
 20
-726.6993994231
 30
0.0
 11
114.8738916343
 21
-726.6993994231
 31
0.0
  0
LINE
  5
308
330
1F
100
AcDbEntity
  8
0
100
AcDbLine
 10
114.8738916343
 20
-726.6993994231
 30
0.0
 11
114.8738916343
 21
-711.6993994231
 31
0.0
  0
LINE
  5
309
330
1F
100
AcDbEntity
  8
0
100
AcDbLine
 10
98.4194089624
 20
-702.1993994231
 30
0.0
 11
83.4194089624
 21
-702.1993994231
 31
0.0
  0
LINE
  5
30A
330
1F
100
AcDbEntity
  8
0
100
AcDbLine
 10
83.4194089624
 20
-702.1993994231
 30
0.0
 11
83.4194089624
 21
-717.1993994231
 31
0.0
  0
LINE
  5
30B
330
1F
100
AcDbEntity
  8
0
100
AcDbLine
 10
83.4194089624
 20
-717.1993994231
 30
0.0
 11
98.4194089624
 21
-717.1993994231
 31
0.0
  0
LINE
  5
30C
330
1F
100
AcDbEntity
  8
0
100
AcDbLine
 10
98.4194089624
 20
-717.1993994231
 30
0.0
 11
98.4194089624
 21
-702.1993994231
 31
0.0
  0
LINE
  5
30D
330
1F
100
AcDbEntity
  8
0
100
AcDbLine
 10
81.9649262905
 20
-692.6993994231
 30
0.0
 11
66.9649262905
 21
-692.6993994231
 31
0.0
  0
LINE
  5
30E
330
1F
100
AcDbEntity
  8
0
100
AcDbLine
 10
66.9649262905
 20
-692.6993994231
 30
0.0
 11
66.9649262905
 21
-707.6993994231
 31
0.0
  0
LINE
  5
30F
330
1F
100
AcDbEntity
  8
0
100
AcDbLine
 10
66.9649262905
 20
-707.6993994231
 30
0.0
 11
81.9649262905
 21
-707.6993994231
 31
0.0
  0
LINE
  5
310
330
1F
100
AcDbEntity
  8
0
100
AcDbLine
 10
81.9649262905
 20
-707.6993994231
 30
0.0
 11
81.9649262905
 21
-692.6993994231
 31
0.0
  0
LINE
  5
311
330
1F
100
AcDbEntity
  8
0
100
AcDbLine
 10
65.5104436186
 20
-683.1993994231
 30
0.0
 11
50.5104436186
 21
-683.1993994231
 31
0.0
  0
LINE
  5
312
330
1F
100
AcDbEntity
  8
0
100
AcDbLine
 10
50.5104436186
 20
-683.1993994231
 30
0.0
 11
50.5104436186
 21
-698.1993994231
 31
0.0
  0
LINE
  5
313
330
1F
100
AcDbEntity
  8
0
100
AcDbLine
 10
50.5104436186
 20
-698.1993994231
 30
0.0
 11
65.5104436186
 21
-698.1993994231
 31
0.0
  0
LINE
  5
314
330
1F
100
AcDbEntity
  8
0
100
AcDbLine
 10
65.5104436186
 20
-698.1993994231
 30
0.0
 11
65.5104436186
 21
-683.1993994231
 31
0.0
  0
LINE
  5
315
330
1F
100
AcDbEntity
  8
0
100
AcDbLine
 10
49.0559609467
 20
-673.6993994231
 30
0.0
 11
34.0559609467
 21
-673.6993994231
 31
0.0
  0
LINE
  5
316
330
1F
100
AcDbEntity
  8
0
100
AcDbLine
 10
34.0559609467
 20
-673.6993994231
 30
0.0
 11
34.0559609467
 21
-688.6993994231
 31
0.0
  0
LINE
  5
317
330
1F
100
AcDbEntity
  8
0
100
AcDbLine
 10
34.0559609467
 20
-688.6993994231
 30
0.0
 11
49.0559609467
 21
-688.6993994231
 31
0.0
  0
LINE
  5
318
330
1F
100
AcDbEntity
  8
0
100
AcDbLine
 10
49.0559609467
 20
-688.6993994231
 30
0.0
 11
49.0559609467
 21
-673.6993994231
 31
0.0
  0
LINE
  5
319
330
1F
100
AcDbEntity
  8
0
100
AcDbLine
 10
32.6014782748
 20
-664.1993994231
 30
0.0
 11
17.6014782748
 21
-664.1993994231
 31
0.0
  0
LINE
  5
31A
330
1F
100
AcDbEntity
  8
0
100
AcDbLine
 10
17.6014782748
 20
-664.1993994231
 30
0.0
 11
17.6014782748
 21
-679.1993994231
 31
0.0
  0
LINE
  5
31B
330
1F
100
AcDbEntity
  8
0
100
AcDbLine
 10
17.6014782748
 20
-679.1993994231
 30
0.0
 11
32.6014782748
 21
-679.1993994231
 31
0.0
  0
LINE
  5
31C
330
1F
100
AcDbEntity
  8
0
100
AcDbLine
 10
32.6014782748
 20
-679.1993994231
 30
0.0
 11
32.6014782748
 21
-664.1993994231
 31
0.0
  0
LINE
  5
31D
330
1F
100
AcDbEntity
  8
0
100
AcDbLine
 10
16.1469956029
 20
-654.6993994231
 30
0.0
 11
1.1469956029
 21
-654.6993994231
 31
0.0
  0
LINE
  5
31E
330
1F
100
AcDbEntity
  8
0
100
AcDbLine
 10
1.1469956029
 20
-654.6993994231
 30
0.0
 11
1.1469956029
 21
-669.6993994231
 31
0.0
  0
LINE
  5
31F
330
1F
100
AcDbEntity
  8
0
100
AcDbLine
 10
1.1469956029
 20
-669.6993994231
 30
0.0
 11
16.1469956029
 21
-669.6993994231
 31
0.0
  0
LINE
  5
320
330
1F
100
AcDbEntity
  8
0
100
AcDbLine
 10
16.1469956029
 20
-669.6993994231
 30
0.0
 11
16.1469956029
 21
-654.6993994231
 31
0.0
  0
LINE
  5
321
330
1F
100
AcDbEntity
  8
0
100
AcDbLine
 10
-0.307487069
 20
-645.1993994231
 30
0.0
 11
-15.307487069
 21
-645.1993994231
 31
0.0
  0
LINE
  5
322
330
1F
100
AcDbEntity
  8
0
100
AcDbLine
 10
-15.307487069
 20
-645.1993994231
 30
0.0
 11
-15.307487069
 21
-660.1993994231
 31
0.0
  0
LINE
  5
323
330
1F
100
AcDbEntity
  8
0
100
AcDbLine
 10
-15.307487069
 20
-660.1993994231
 30
0.0
 11
-0.307487069
 21
-660.1993994231
 31
0.0
  0
LINE
  5
324
330
1F
100
AcDbEntity
  8
0
100
AcDbLine
 10
-0.307487069
 20
-660.1993994231
 30
0.0
 11
-0.307487069
 21
-645.1993994231
 31
0.0
  0
LINE
  5
325
330
1F
100
AcDbEntity
  8
0
100
AcDbLine
 10
-16.7619697409
 20
-635.6993994231
 30
0.0
 11
-31.7619697409
 21
-635.6993994231
 31
0.0
  0
LINE
  5
326
330
1F
100
AcDbEntity
  8
0
100
AcDbLine
 10
-31.7619697409
 20
-635.6993994231
 30
0.0
 11
-31.7619697409
 21
-650.6993994231
 31
0.0
  0
LINE
  5
327
330
1F
100
AcDbEntity
  8
0
100
AcDbLine
 10
-31.7619697409
 20
-650.6993994231
 30
0.0
 11
-16.7619697409
 21
-650.6993994231
 31
0.0
  0
LINE
  5
328
330
1F
100
AcDbEntity
  8
0
100
AcDbLine
 10
-16.7619697409
 20
-650.6993994231
 30
0.0
 11
-16.7619697409
 21
-635.6993994231
 31
0.0
  0
LINE
  5
329
330
1F
100
AcDbEntity
  8
0
100
AcDbLine
 10
-33.2164524128
 20
-626.1993994231
 30
0.0
 11
-48.2164524128
 21
-626.1993994231
 31
0.0
  0
LINE
  5
32A
330
1F
100
AcDbEntity
  8
0
100
AcDbLine
 10
-48.2164524128
 20
-626.1993994231
 30
0.0
 11
-48.2164524128
 21
-641.1993994231
 31
0.0
  0
LINE
  5
32B
330
1F
100
AcDbEntity
  8
0
100
AcDbLine
 10
-48.2164524128
 20
-641.1993994231
 30
0.0
 11
-33.2164524128
 21
-641.1993994231
 31
0.0
  0
LINE
  5
32C
330
1F
100
AcDbEntity
  8
0
100
AcDbLine
 10
-33.2164524128
 20
-641.1993994231
 30
0.0
 11
-33.2164524128
 21
-626.1993994231
 31
0.0
  0
LINE
  5
32D
330
1F
100
AcDbEntity
  8
0
100
AcDbLine
 10
-49.6709350847
 20
-616.6993994231
 30
0.0
 11
-64.6709350847
 21
-616.6993994231
 31
0.0
  0
LINE
  5
32E
330
1F
100
AcDbEntity
  8
0
100
AcDbLine
 10
-64.6709350847
 20
-616.6993994231
 30
0.0
 11
-64.6709350847
 21
-631.6993994231
 31
0.0
  0
LINE
  5
32F
330
1F
100
AcDbEntity
  8
0
100
AcDbLine
 10
-64.6709350847
 20
-631.6993994231
 30
0.0
 11
-49.6709350847
 21
-631.6993994231
 31
0.0
  0
LINE
  5
330
330
1F
100
AcDbEntity
  8
0
100
AcDbLine
 10
-49.6709350847
 20
-631.6993994231
 30
0.0
 11
-49.6709350847
 21
-616.6993994231
 31
0.0
  0
LINE
  5
331
330
1F
100
AcDbEntity
  8
0
100
AcDbLine
 10
-66.1254177566
 20
-607.1993994231
 30
0.0
 11
-81.1254177566
 21
-607.1993994231
 31
0.0
  0
LINE
  5
332
330
1F
100
AcDbEntity
  8
0
100
AcDbLine
 10
-81.1254177566
 20
-607.1993994231
 30
0.0
 11
-81.1254177566
 21
-622.1993994231
 31
0.0
  0
LINE
  5
333
330
1F
100
AcDbEntity
  8
0
100
AcDbLine
 10
-81.1254177566
 20
-622.1993994231
 30
0.0
 11
-66.1254177566
 21
-622.1993994231
 31
0.0
  0
LINE
  5
334
330
1F
100
AcDbEntity
  8
0
100
AcDbLine
 10
-66.1254177566
 20
-622.1993994231
 30
0.0
 11
-66.1254177566
 21
-607.1993994231
 31
0.0
  0
LINE
  5
335
330
1F
100
AcDbEntity
  8
0
100
AcDbLine
 10
164.23733965
 20
-721.1993994231
 30
0.0
 11
149.23733965
 21
-721.1993994231
 31
0.0
  0
LINE
  5
336
330
1F
100
AcDbEntity
  8
0
100
AcDbLine
 10
149.23733965
 20
-721.1993994231
 30
0.0
 11
149.23733965
 21
-736.1993994231
 31
0.0
  0
LINE
  5
337
330
1F
100
AcDbEntity
  8
0
100
AcDbLine
 10
149.23733965
 20
-736.1993994231
 30
0.0
 11
164.23733965
 21
-736.1993994231
 31
0.0
  0
LINE
  5
338
330
1F
100
AcDbEntity
  8
0
100
AcDbLine
 10
164.23733965
 20
-736.1993994231
 30
0.0
 11
164.23733965
 21
-721.1993994231
 31
0.0
  0
LINE
  5
339
330
1F
100
AcDbEntity
  8
0
100
AcDbLine
 10
147.7828569781
 20
-711.6993994231
 30
0.0
 11
132.7828569781
 21
-711.6993994231
 31
0.0
  0
LINE
  5
33A
330
1F
100
AcDbEntity
  8
0
100
AcDbLine
 10
132.7828569781
 20
-711.6993994231
 30
0.0
 11
132.7828569781
 21
-726.6993994231
 31
0.0
  0
LINE
  5
33B
330
1F
100
AcDbEntity
  8
0
100
AcDbLine
 10
132.7828569781
 20
-726.6993994231
 30
0.0
 11
147.7828569781
 21
-726.6993994231
 31
0.0
  0
LINE
  5
33C
330
1F
100
AcDbEntity
  8
0
100
AcDbLine
 10
147.7828569781
 20
-726.6993994231
 30
0.0
 11
147.7828569781
 21
-711.6993994231
 31
0.0
  0
LINE
  5
33D
330
1F
100
AcDbEntity
  8
0
100
AcDbLine
 10
131.3283743062
 20
-702.1993994231
 30
0.0
 11
116.3283743062
 21
-702.1993994231
 31
0.0
  0
LINE
  5
33E
330
1F
100
AcDbEntity
  8
0
100
AcDbLine
 10
116.3283743062
 20
-702.1993994231
 30
0.0
 11
116.3283743062
 21
-717.1993994231
 31
0.0
  0
LINE
  5
33F
330
1F
100
AcDbEntity
  8
0
100
AcDbLine
 10
116.3283743062
 20
-717.1993994231
 30
0.0
 11
131.3283743062
 21
-717.1993994231
 31
0.0
  0
LINE
  5
340
330
1F
100
AcDbEntity
  8
0
100
AcDbLine
 10
131.3283743062
 20
-717.1993994231
 30
0.0
 11
131.3283743062
 21
-702.1993994231
 31
0.0
  0
LINE
  5
341
330
1F
100
AcDbEntity
  8
0
100
AcDbLine
 10
114.8738916343
 20
-692.6993994231
 30
0.0
 11
99.8738916343
 21
-692.6993994231
 31
0.0
  0
LINE
  5
342
330
1F
100
AcDbEntity
  8
0
100
AcDbLine
 10
99.8738916343
 20
-692.6993994231
 30
0.0
 11
99.8738916343
 21
-707.6993994231
 31
0.0
  0
LINE
  5
343
330
1F
100
AcDbEntity
  8
0
100
AcDbLine
 10
99.8738916343
 20
-707.6993994231
 30
0.0
 11
114.8738916343
 21
-707.6993994231
 31
0.0
  0
LINE
  5
344
330
1F
100
AcDbEntity
  8
0
100
AcDbLine
 10
114.8738916343
 20
-707.6993994231
 30
0.0
 11
114.8738916343
 21
-692.6993994231
 31
0.0
  0
LINE
  5
345
330
1F
100
AcDbEntity
  8
0
100
AcDbLine
 10
98.4194089624
 20
-683.1993994231
 30
0.0
 11
83.4194089624
 21
-683.1993994231
 31
0.0
  0
LINE
  5
346
330
1F
100
AcDbEntity
  8
0
100
AcDbLine
 10
83.4194089624
 20
-683.1993994231
 30
0.0
 11
83.4194089624
 21
-698.1993994231
 31
0.0
  0
LINE
  5
347
330
1F
100
AcDbEntity
  8
0
100
AcDbLine
 10
83.4194089624
 20
-698.1993994231
 30
0.0
 11
98.4194089624
 21
-698.1993994231
 31
0.0
  0
LINE
  5
348
330
1F
100
AcDbEntity
  8
0
100
AcDbLine
 10
98.4194089624
 20
-698.1993994231
 30
0.0
 11
98.4194089624
 21
-683.1993994231
 31
0.0
  0
LINE
  5
349
330
1F
100
AcDbEntity
  8
0
100
AcDbLine
 10
81.9649262905
 20
-673.6993994231
 30
0.0
 11
66.9649262905
 21
-673.6993994231
 31
0.0
  0
LINE
  5
34A
330
1F
100
AcDbEntity
  8
0
100
AcDbLine
 10
66.9649262905
 20
-673.6993994231
 30
0.0
 11
66.9649262905
 21
-688.6993994231
 31
0.0
  0
LINE
  5
34B
330
1F
100
AcDbEntity
  8
0
100
AcDbLine
 10
66.9649262905
 20
-688.6993994231
 30
0.0
 11
81.9649262905
 21
-688.6993994231
 31
0.0
  0
LINE
  5
34C
330
1F
100
AcDbEntity
  8
0
100
AcDbLine
 10
81.9649262905
 20
-688.6993994231
 30
0.0
 11
81.9649262905
 21
-673.6993994231
 31
0.0
  0
LINE
  5
34D
330
1F
100
AcDbEntity
  8
0
100
AcDbLine
 10
65.5104436186
 20
-664.1993994231
 30
0.0
 11
50.5104436186
 21
-664.1993994231
 31
0.0
  0
LINE
  5
34E
330
1F
100
AcDbEntity
  8
0
100
AcDbLine
 10
50.5104436186
 20
-664.1993994231
 30
0.0
 11
50.5104436186
 21
-679.1993994231
 31
0.0
  0
LINE
  5
34F
330
1F
100
AcDbEntity
  8
0
100
AcDbLine
 10
50.5104436186
 20
-679.1993994231
 30
0.0
 11
65.5104436186
 21
-679.1993994231
 31
0.0
  0
LINE
  5
350
330
1F
100
AcDbEntity
  8
0
100
AcDbLine
 10
65.5104436186
 20
-679.1993994231
 30
0.0
 11
65.5104436186
 21
-664.1993994231
 31
0.0
  0
LINE
  5
351
330
1F
100
AcDbEntity
  8
0
100
AcDbLine
 10
49.0559609467
 20
-654.6993994231
 30
0.0
 11
34.0559609467
 21
-654.6993994231
 31
0.0
  0
LINE
  5
352
330
1F
100
AcDbEntity
  8
0
100
AcDbLine
 10
34.0559609467
 20
-654.6993994231
 30
0.0
 11
34.0559609467
 21
-669.6993994231
 31
0.0
  0
LINE
  5
353
330
1F
100
AcDbEntity
  8
0
100
AcDbLine
 10
34.0559609467
 20
-669.6993994231
 30
0.0
 11
49.0559609467
 21
-669.6993994231
 31
0.0
  0
LINE
  5
354
330
1F
100
AcDbEntity
  8
0
100
AcDbLine
 10
49.0559609467
 20
-669.6993994231
 30
0.0
 11
49.0559609467
 21
-654.6993994231
 31
0.0
  0
LINE
  5
355
330
1F
100
AcDbEntity
  8
0
100
AcDbLine
 10
32.6014782748
 20
-645.1993994231
 30
0.0
 11
17.6014782748
 21
-645.1993994231
 31
0.0
  0
LINE
  5
356
330
1F
100
AcDbEntity
  8
0
100
AcDbLine
 10
17.6014782748
 20
-645.1993994231
 30
0.0
 11
17.6014782748
 21
-660.1993994231
 31
0.0
  0
LINE
  5
357
330
1F
100
AcDbEntity
  8
0
100
AcDbLine
 10
17.6014782748
 20
-660.1993994231
 30
0.0
 11
32.6014782748
 21
-660.1993994231
 31
0.0
  0
LINE
  5
358
330
1F
100
AcDbEntity
  8
0
100
AcDbLine
 10
32.6014782748
 20
-660.1993994231
 30
0.0
 11
32.6014782748
 21
-645.1993994231
 31
0.0
  0
LINE
  5
359
330
1F
100
AcDbEntity
  8
0
100
AcDbLine
 10
16.1469956029
 20
-635.6993994231
 30
0.0
 11
1.1469956029
 21
-635.6993994231
 31
0.0
  0
LINE
  5
35A
330
1F
100
AcDbEntity
  8
0
100
AcDbLine
 10
1.1469956029
 20
-635.6993994231
 30
0.0
 11
1.1469956029
 21
-650.6993994231
 31
0.0
  0
LINE
  5
35B
330
1F
100
AcDbEntity
  8
0
100
AcDbLine
 10
1.1469956029
 20
-650.6993994231
 30
0.0
 11
16.1469956029
 21
-650.6993994231
 31
0.0
  0
LINE
  5
35C
330
1F
100
AcDbEntity
  8
0
100
AcDbLine
 10
16.1469956029
 20
-650.6993994231
 30
0.0
 11
16.1469956029
 21
-635.6993994231
 31
0.0
  0
LINE
  5
35D
330
1F
100
AcDbEntity
  8
0
100
AcDbLine
 10
-0.307487069
 20
-626.1993994231
 30
0.0
 11
-15.307487069
 21
-626.1993994231
 31
0.0
  0
LINE
  5
35E
330
1F
100
AcDbEntity
  8
0
100
AcDbLine
 10
-15.307487069
 20
-626.1993994231
 30
0.0
 11
-15.307487069
 21
-641.1993994231
 31
0.0
  0
LINE
  5
35F
330
1F
100
AcDbEntity
  8
0
100
AcDbLine
 10
-15.307487069
 20
-641.1993994231
 30
0.0
 11
-0.307487069
 21
-641.1993994231
 31
0.0
  0
LINE
  5
360
330
1F
100
AcDbEntity
  8
0
100
AcDbLine
 10
-0.307487069
 20
-641.1993994231
 30
0.0
 11
-0.307487069
 21
-626.1993994231
 31
0.0
  0
LINE
  5
361
330
1F
100
AcDbEntity
  8
0
100
AcDbLine
 10
-16.7619697409
 20
-616.6993994231
 30
0.0
 11
-31.7619697409
 21
-616.6993994231
 31
0.0
  0
LINE
  5
362
330
1F
100
AcDbEntity
  8
0
100
AcDbLine
 10
-31.7619697409
 20
-616.6993994231
 30
0.0
 11
-31.7619697409
 21
-631.6993994231
 31
0.0
  0
LINE
  5
363
330
1F
100
AcDbEntity
  8
0
100
AcDbLine
 10
-31.7619697409
 20
-631.6993994231
 30
0.0
 11
-16.7619697409
 21
-631.6993994231
 31
0.0
  0
LINE
  5
364
330
1F
100
AcDbEntity
  8
0
100
AcDbLine
 10
-16.7619697409
 20
-631.6993994231
 30
0.0
 11
-16.7619697409
 21
-616.6993994231
 31
0.0
  0
LINE
  5
365
330
1F
100
AcDbEntity
  8
0
100
AcDbLine
 10
-33.2164524128
 20
-607.1993994231
 30
0.0
 11
-48.2164524128
 21
-607.1993994231
 31
0.0
  0
LINE
  5
366
330
1F
100
AcDbEntity
  8
0
100
AcDbLine
 10
-48.2164524128
 20
-607.1993994231
 30
0.0
 11
-48.2164524128
 21
-622.1993994231
 31
0.0
  0
LINE
  5
367
330
1F
100
AcDbEntity
  8
0
100
AcDbLine
 10
-48.2164524128
 20
-622.1993994231
 30
0.0
 11
-33.2164524128
 21
-622.1993994231
 31
0.0
  0
LINE
  5
368
330
1F
100
AcDbEntity
  8
0
100
AcDbLine
 10
-33.2164524128
 20
-622.1993994231
 30
0.0
 11
-33.2164524128
 21
-607.1993994231
 31
0.0
  0
LINE
  5
369
330
1F
100
AcDbEntity
  8
0
100
AcDbLine
 10
-49.6709350847
 20
-597.6993994231
 30
0.0
 11
-64.6709350847
 21
-597.6993994231
 31
0.0
  0
LINE
  5
36A
330
1F
100
AcDbEntity
  8
0
100
AcDbLine
 10
-64.6709350847
 20
-597.6993994231
 30
0.0
 11
-64.6709350847
 21
-612.6993994231
 31
0.0
  0
LINE
  5
36B
330
1F
100
AcDbEntity
  8
0
100
AcDbLine
 10
-64.6709350847
 20
-612.6993994231
 30
0.0
 11
-49.6709350847
 21
-612.6993994231
 31
0.0
  0
LINE
  5
36C
330
1F
100
AcDbEntity
  8
0
100
AcDbLine
 10
-49.6709350847
 20
-612.6993994231
 30
0.0
 11
-49.6709350847
 21
-597.6993994231
 31
0.0
  0
LINE
  5
36D
330
1F
100
AcDbEntity
  8
0
100
AcDbLine
 10
-66.1254177566
 20
-588.1993994231
 30
0.0
 11
-81.1254177566
 21
-588.1993994231
 31
0.0
  0
LINE
  5
36E
330
1F
100
AcDbEntity
  8
0
100
AcDbLine
 10
-81.1254177566
 20
-588.1993994231
 30
0.0
 11
-81.1254177566
 21
-603.1993994231
 31
0.0
  0
LINE
  5
36F
330
1F
100
AcDbEntity
  8
0
100
AcDbLine
 10
-81.1254177566
 20
-603.1993994231
 30
0.0
 11
-66.1254177566
 21
-603.1993994231
 31
0.0
  0
LINE
  5
370
330
1F
100
AcDbEntity
  8
0
100
AcDbLine
 10
-66.1254177566
 20
-603.1993994231
 30
0.0
 11
-66.1254177566
 21
-588.1993994231
 31
0.0
  0
LINE
  5
371
330
1F
100
AcDbEntity
  8
0
100
AcDbLine
 10
180.6918223219
 20
-711.6993994231
 30
0.0
 11
165.6918223219
 21
-711.6993994231
 31
0.0
  0
LINE
  5
372
330
1F
100
AcDbEntity
  8
0
100
AcDbLine
 10
165.6918223219
 20
-711.6993994231
 30
0.0
 11
165.6918223219
 21
-726.6993994231
 31
0.0
  0
LINE
  5
373
330
1F
100
AcDbEntity
  8
0
100
AcDbLine
 10
165.6918223219
 20
-726.6993994231
 30
0.0
 11
180.6918223219
 21
-726.6993994231
 31
0.0
  0
LINE
  5
374
330
1F
100
AcDbEntity
  8
0
100
AcDbLine
 10
180.6918223219
 20
-726.6993994231
 30
0.0
 11
180.6918223219
 21
-711.6993994231
 31
0.0
  0
LINE
  5
375
330
1F
100
AcDbEntity
  8
0
100
AcDbLine
 10
164.23733965
 20
-702.1993994231
 30
0.0
 11
149.23733965
 21
-702.1993994231
 31
0.0
  0
LINE
  5
376
330
1F
100
AcDbEntity
  8
0
100
AcDbLine
 10
149.23733965
 20
-702.1993994231
 30
0.0
 11
149.23733965
 21
-717.1993994231
 31
0.0
  0
LINE
  5
377
330
1F
100
AcDbEntity
  8
0
100
AcDbLine
 10
149.23733965
 20
-717.1993994231
 30
0.0
 11
164.23733965
 21
-717.1993994231
 31
0.0
  0
LINE
  5
378
330
1F
100
AcDbEntity
  8
0
100
AcDbLine
 10
164.23733965
 20
-717.1993994231
 30
0.0
 11
164.23733965
 21
-702.1993994231
 31
0.0
  0
LINE
  5
379
330
1F
100
AcDbEntity
  8
0
100
AcDbLine
 10
147.7828569781
 20
-692.6993994231
 30
0.0
 11
132.7828569781
 21
-692.6993994231
 31
0.0
  0
LINE
  5
37A
330
1F
100
AcDbEntity
  8
0
100
AcDbLine
 10
132.7828569781
 20
-692.6993994231
 30
0.0
 11
132.7828569781
 21
-707.6993994231
 31
0.0
  0
LINE
  5
37B
330
1F
100
AcDbEntity
  8
0
100
AcDbLine
 10
132.7828569781
 20
-707.6993994231
 30
0.0
 11
147.7828569781
 21
-707.6993994231
 31
0.0
  0
LINE
  5
37C
330
1F
100
AcDbEntity
  8
0
100
AcDbLine
 10
147.7828569781
 20
-707.6993994231
 30
0.0
 11
147.7828569781
 21
-692.6993994231
 31
0.0
  0
LINE
  5
37D
330
1F
100
AcDbEntity
  8
0
100
AcDbLine
 10
131.3283743062
 20
-683.1993994231
 30
0.0
 11
116.3283743062
 21
-683.1993994231
 31
0.0
  0
LINE
  5
37E
330
1F
100
AcDbEntity
  8
0
100
AcDbLine
 10
116.3283743062
 20
-683.1993994231
 30
0.0
 11
116.3283743062
 21
-698.1993994231
 31
0.0
  0
LINE
  5
37F
330
1F
100
AcDbEntity
  8
0
100
AcDbLine
 10
116.3283743062
 20
-698.1993994231
 30
0.0
 11
131.3283743062
 21
-698.1993994231
 31
0.0
  0
LINE
  5
380
330
1F
100
AcDbEntity
  8
0
100
AcDbLine
 10
131.3283743062
 20
-698.1993994231
 30
0.0
 11
131.3283743062
 21
-683.1993994231
 31
0.0
  0
LINE
  5
381
330
1F
100
AcDbEntity
  8
0
100
AcDbLine
 10
114.8738916343
 20
-673.6993994231
 30
0.0
 11
99.8738916343
 21
-673.6993994231
 31
0.0
  0
LINE
  5
382
330
1F
100
AcDbEntity
  8
0
100
AcDbLine
 10
99.8738916343
 20
-673.6993994231
 30
0.0
 11
99.8738916343
 21
-688.6993994231
 31
0.0
  0
LINE
  5
383
330
1F
100
AcDbEntity
  8
0
100
AcDbLine
 10
99.8738916343
 20
-688.6993994231
 30
0.0
 11
114.8738916343
 21
-688.6993994231
 31
0.0
  0
LINE
  5
384
330
1F
100
AcDbEntity
  8
0
100
AcDbLine
 10
114.8738916343
 20
-688.6993994231
 30
0.0
 11
114.8738916343
 21
-673.6993994231
 31
0.0
  0
LINE
  5
385
330
1F
100
AcDbEntity
  8
0
100
AcDbLine
 10
98.4194089624
 20
-664.1993994231
 30
0.0
 11
83.4194089624
 21
-664.1993994231
 31
0.0
  0
LINE
  5
386
330
1F
100
AcDbEntity
  8
0
100
AcDbLine
 10
83.4194089624
 20
-664.1993994231
 30
0.0
 11
83.4194089624
 21
-679.1993994231
 31
0.0
  0
LINE
  5
387
330
1F
100
AcDbEntity
  8
0
100
AcDbLine
 10
83.4194089624
 20
-679.1993994231
 30
0.0
 11
98.4194089624
 21
-679.1993994231
 31
0.0
  0
LINE
  5
388
330
1F
100
AcDbEntity
  8
0
100
AcDbLine
 10
98.4194089624
 20
-679.1993994231
 30
0.0
 11
98.4194089624
 21
-664.1993994231
 31
0.0
  0
LINE
  5
389
330
1F
100
AcDbEntity
  8
0
100
AcDbLine
 10
81.9649262905
 20
-654.6993994231
 30
0.0
 11
66.9649262905
 21
-654.6993994231
 31
0.0
  0
LINE
  5
38A
330
1F
100
AcDbEntity
  8
0
100
AcDbLine
 10
66.9649262905
 20
-654.6993994231
 30
0.0
 11
66.9649262905
 21
-669.6993994231
 31
0.0
  0
LINE
  5
38B
330
1F
100
AcDbEntity
  8
0
100
AcDbLine
 10
66.9649262905
 20
-669.6993994231
 30
0.0
 11
81.9649262905
 21
-669.6993994231
 31
0.0
  0
LINE
  5
38C
330
1F
100
AcDbEntity
  8
0
100
AcDbLine
 10
81.9649262905
 20
-669.6993994231
 30
0.0
 11
81.9649262905
 21
-654.6993994231
 31
0.0
  0
LINE
  5
38D
330
1F
100
AcDbEntity
  8
0
100
AcDbLine
 10
65.5104436186
 20
-645.1993994231
 30
0.0
 11
50.5104436186
 21
-645.1993994231
 31
0.0
  0
LINE
  5
38E
330
1F
100
AcDbEntity
  8
0
100
AcDbLine
 10
50.5104436186
 20
-645.1993994231
 30
0.0
 11
50.5104436186
 21
-660.1993994231
 31
0.0
  0
LINE
  5
38F
330
1F
100
AcDbEntity
  8
0
100
AcDbLine
 10
50.5104436186
 20
-660.1993994231
 30
0.0
 11
65.5104436186
 21
-660.1993994231
 31
0.0
  0
LINE
  5
390
330
1F
100
AcDbEntity
  8
0
100
AcDbLine
 10
65.5104436186
 20
-660.1993994231
 30
0.0
 11
65.5104436186
 21
-645.1993994231
 31
0.0
  0
LINE
  5
391
330
1F
100
AcDbEntity
  8
0
100
AcDbLine
 10
49.0559609467
 20
-635.6993994231
 30
0.0
 11
34.0559609467
 21
-635.6993994231
 31
0.0
  0
LINE
  5
392
330
1F
100
AcDbEntity
  8
0
100
AcDbLine
 10
34.0559609467
 20
-635.6993994231
 30
0.0
 11
34.0559609467
 21
-650.6993994231
 31
0.0
  0
LINE
  5
393
330
1F
100
AcDbEntity
  8
0
100
AcDbLine
 10
34.0559609467
 20
-650.6993994231
 30
0.0
 11
49.0559609467
 21
-650.6993994231
 31
0.0
  0
LINE
  5
394
330
1F
100
AcDbEntity
  8
0
100
AcDbLine
 10
49.0559609467
 20
-650.6993994231
 30
0.0
 11
49.0559609467
 21
-635.6993994231
 31
0.0
  0
LINE
  5
395
330
1F
100
AcDbEntity
  8
0
100
AcDbLine
 10
32.6014782748
 20
-626.1993994231
 30
0.0
 11
17.6014782748
 21
-626.1993994231
 31
0.0
  0
LINE
  5
396
330
1F
100
AcDbEntity
  8
0
100
AcDbLine
 10
17.6014782748
 20
-626.1993994231
 30
0.0
 11
17.6014782748
 21
-641.1993994231
 31
0.0
  0
LINE
  5
397
330
1F
100
AcDbEntity
  8
0
100
AcDbLine
 10
17.6014782748
 20
-641.1993994231
 30
0.0
 11
32.6014782748
 21
-641.1993994231
 31
0.0
  0
LINE
  5
398
330
1F
100
AcDbEntity
  8
0
100
AcDbLine
 10
32.6014782748
 20
-641.1993994231
 30
0.0
 11
32.6014782748
 21
-626.1993994231
 31
0.0
  0
LINE
  5
399
330
1F
100
AcDbEntity
  8
0
100
AcDbLine
 10
16.1469956029
 20
-616.6993994231
 30
0.0
 11
1.1469956029
 21
-616.6993994231
 31
0.0
  0
LINE
  5
39A
330
1F
100
AcDbEntity
  8
0
100
AcDbLine
 10
1.1469956029
 20
-616.6993994231
 30
0.0
 11
1.1469956029
 21
-631.6993994231
 31
0.0
  0
LINE
  5
39B
330
1F
100
AcDbEntity
  8
0
100
AcDbLine
 10
1.1469956029
 20
-631.6993994231
 30
0.0
 11
16.1469956029
 21
-631.6993994231
 31
0.0
  0
LINE
  5
39C
330
1F
100
AcDbEntity
  8
0
100
AcDbLine
 10
16.1469956029
 20
-631.6993994231
 30
0.0
 11
16.1469956029
 21
-616.6993994231
 31
0.0
  0
LINE
  5
39D
330
1F
100
AcDbEntity
  8
0
100
AcDbLine
 10
-0.307487069
 20
-607.1993994231
 30
0.0
 11
-15.307487069
 21
-607.1993994231
 31
0.0
  0
LINE
  5
39E
330
1F
100
AcDbEntity
  8
0
100
AcDbLine
 10
-15.307487069
 20
-607.1993994231
 30
0.0
 11
-15.307487069
 21
-622.1993994231
 31
0.0
  0
LINE
  5
39F
330
1F
100
AcDbEntity
  8
0
100
AcDbLine
 10
-15.307487069
 20
-622.1993994231
 30
0.0
 11
-0.307487069
 21
-622.1993994231
 31
0.0
  0
LINE
  5
3A0
330
1F
100
AcDbEntity
  8
0
100
AcDbLine
 10
-0.307487069
 20
-622.1993994231
 30
0.0
 11
-0.307487069
 21
-607.1993994231
 31
0.0
  0
LINE
  5
3A1
330
1F
100
AcDbEntity
  8
0
100
AcDbLine
 10
-16.7619697409
 20
-597.6993994231
 30
0.0
 11
-31.7619697409
 21
-597.6993994231
 31
0.0
  0
LINE
  5
3A2
330
1F
100
AcDbEntity
  8
0
100
AcDbLine
 10
-31.7619697409
 20
-597.6993994231
 30
0.0
 11
-31.7619697409
 21
-612.6993994231
 31
0.0
  0
LINE
  5
3A3
330
1F
100
AcDbEntity
  8
0
100
AcDbLine
 10
-31.7619697409
 20
-612.6993994231
 30
0.0
 11
-16.7619697409
 21
-612.6993994231
 31
0.0
  0
LINE
  5
3A4
330
1F
100
AcDbEntity
  8
0
100
AcDbLine
 10
-16.7619697409
 20
-612.6993994231
 30
0.0
 11
-16.7619697409
 21
-597.6993994231
 31
0.0
  0
LINE
  5
3A5
330
1F
100
AcDbEntity
  8
0
100
AcDbLine
 10
-33.2164524128
 20
-588.1993994231
 30
0.0
 11
-48.2164524128
 21
-588.1993994231
 31
0.0
  0
LINE
  5
3A6
330
1F
100
AcDbEntity
  8
0
100
AcDbLine
 10
-48.2164524128
 20
-588.1993994231
 30
0.0
 11
-48.2164524128
 21
-603.1993994231
 31
0.0
  0
LINE
  5
3A7
330
1F
100
AcDbEntity
  8
0
100
AcDbLine
 10
-48.2164524128
 20
-603.1993994231
 30
0.0
 11
-33.2164524128
 21
-603.1993994231
 31
0.0
  0
LINE
  5
3A8
330
1F
100
AcDbEntity
  8
0
100
AcDbLine
 10
-33.2164524128
 20
-603.1993994231
 30
0.0
 11
-33.2164524128
 21
-588.1993994231
 31
0.0
  0
LINE
  5
3A9
330
1F
100
AcDbEntity
  8
0
100
AcDbLine
 10
-49.6709350847
 20
-578.6993994231
 30
0.0
 11
-64.6709350847
 21
-578.6993994231
 31
0.0
  0
LINE
  5
3AA
330
1F
100
AcDbEntity
  8
0
100
AcDbLine
 10
-64.6709350847
 20
-578.6993994231
 30
0.0
 11
-64.6709350847
 21
-593.6993994231
 31
0.0
  0
LINE
  5
3AB
330
1F
100
AcDbEntity
  8
0
100
AcDbLine
 10
-64.6709350847
 20
-593.6993994231
 30
0.0
 11
-49.6709350847
 21
-593.6993994231
 31
0.0
  0
LINE
  5
3AC
330
1F
100
AcDbEntity
  8
0
100
AcDbLine
 10
-49.6709350847
 20
-593.6993994231
 30
0.0
 11
-49.6709350847
 21
-578.6993994231
 31
0.0
  0
LINE
  5
3AD
330
1F
100
AcDbEntity
  8
0
100
AcDbLine
 10
-66.1254177566
 20
-569.1993994231
 30
0.0
 11
-81.1254177566
 21
-569.1993994231
 31
0.0
  0
LINE
  5
3AE
330
1F
100
AcDbEntity
  8
0
100
AcDbLine
 10
-81.1254177566
 20
-569.1993994231
 30
0.0
 11
-81.1254177566
 21
-584.1993994231
 31
0.0
  0
LINE
  5
3AF
330
1F
100
AcDbEntity
  8
0
100
AcDbLine
 10
-81.1254177566
 20
-584.1993994231
 30
0.0
 11
-66.1254177566
 21
-584.1993994231
 31
0.0
  0
LINE
  5
3B0
330
1F
100
AcDbEntity
  8
0
100
AcDbLine
 10
-66.1254177566
 20
-584.1993994231
 30
0.0
 11
-66.1254177566
 21
-569.1993994231
 31
0.0
  0
LINE
  5
3B1
330
1F
100
AcDbEntity
  8
0
100
AcDbLine
 10
180.6918223219
 20
-692.6993994231
 30
0.0
 11
165.6918223219
 21
-692.6993994231
 31
0.0
  0
LINE
  5
3B2
330
1F
100
AcDbEntity
  8
0
100
AcDbLine
 10
165.6918223219
 20
-692.6993994231
 30
0.0
 11
165.6918223219
 21
-707.6993994231
 31
0.0
  0
LINE
  5
3B3
330
1F
100
AcDbEntity
  8
0
100
AcDbLine
 10
165.6918223219
 20
-707.6993994231
 30
0.0
 11
180.6918223219
 21
-707.6993994231
 31
0.0
  0
LINE
  5
3B4
330
1F
100
AcDbEntity
  8
0
100
AcDbLine
 10
180.6918223219
 20
-707.6993994231
 30
0.0
 11
180.6918223219
 21
-692.6993994231
 31
0.0
  0
LINE
  5
3B5
330
1F
100
AcDbEntity
  8
0
100
AcDbLine
 10
164.23733965
 20
-683.1993994231
 30
0.0
 11
149.23733965
 21
-683.1993994231
 31
0.0
  0
LINE
  5
3B6
330
1F
100
AcDbEntity
  8
0
100
AcDbLine
 10
149.23733965
 20
-683.1993994231
 30
0.0
 11
149.23733965
 21
-698.1993994231
 31
0.0
  0
LINE
  5
3B7
330
1F
100
AcDbEntity
  8
0
100
AcDbLine
 10
149.23733965
 20
-698.1993994231
 30
0.0
 11
164.23733965
 21
-698.1993994231
 31
0.0
  0
LINE
  5
3B8
330
1F
100
AcDbEntity
  8
0
100
AcDbLine
 10
164.23733965
 20
-698.1993994231
 30
0.0
 11
164.23733965
 21
-683.1993994231
 31
0.0
  0
LINE
  5
3B9
330
1F
100
AcDbEntity
  8
0
100
AcDbLine
 10
147.7828569781
 20
-673.6993994231
 30
0.0
 11
132.7828569781
 21
-673.6993994231
 31
0.0
  0
LINE
  5
3BA
330
1F
100
AcDbEntity
  8
0
100
AcDbLine
 10
132.7828569781
 20
-673.6993994231
 30
0.0
 11
132.7828569781
 21
-688.6993994231
 31
0.0
  0
LINE
  5
3BB
330
1F
100
AcDbEntity
  8
0
100
AcDbLine
 10
132.7828569781
 20
-688.6993994231
 30
0.0
 11
147.7828569781
 21
-688.6993994231
 31
0.0
  0
LINE
  5
3BC
330
1F
100
AcDbEntity
  8
0
100
AcDbLine
 10
147.7828569781
 20
-688.6993994231
 30
0.0
 11
147.7828569781
 21
-673.6993994231
 31
0.0
  0
LINE
  5
3BD
330
1F
100
AcDbEntity
  8
0
100
AcDbLine
 10
131.3283743062
 20
-664.1993994231
 30
0.0
 11
116.3283743062
 21
-664.1993994231
 31
0.0
  0
LINE
  5
3BE
330
1F
100
AcDbEntity
  8
0
100
AcDbLine
 10
116.3283743062
 20
-664.1993994231
 30
0.0
 11
116.3283743062
 21
-679.1993994231
 31
0.0
  0
LINE
  5
3BF
330
1F
100
AcDbEntity
  8
0
100
AcDbLine
 10
116.3283743062
 20
-679.1993994231
 30
0.0
 11
131.3283743062
 21
-679.1993994231
 31
0.0
  0
LINE
  5
3C0
330
1F
100
AcDbEntity
  8
0
100
AcDbLine
 10
131.3283743062
 20
-679.1993994231
 30
0.0
 11
131.3283743062
 21
-664.1993994231
 31
0.0
  0
LINE
  5
3C1
330
1F
100
AcDbEntity
  8
0
100
AcDbLine
 10
114.8738916343
 20
-654.6993994231
 30
0.0
 11
99.8738916343
 21
-654.6993994231
 31
0.0
  0
LINE
  5
3C2
330
1F
100
AcDbEntity
  8
0
100
AcDbLine
 10
99.8738916343
 20
-654.6993994231
 30
0.0
 11
99.8738916343
 21
-669.6993994231
 31
0.0
  0
LINE
  5
3C3
330
1F
100
AcDbEntity
  8
0
100
AcDbLine
 10
99.8738916343
 20
-669.6993994231
 30
0.0
 11
114.8738916343
 21
-669.6993994231
 31
0.0
  0
LINE
  5
3C4
330
1F
100
AcDbEntity
  8
0
100
AcDbLine
 10
114.8738916343
 20
-669.6993994231
 30
0.0
 11
114.8738916343
 21
-654.6993994231
 31
0.0
  0
LINE
  5
3C5
330
1F
100
AcDbEntity
  8
0
100
AcDbLine
 10
98.4194089624
 20
-645.1993994231
 30
0.0
 11
83.4194089624
 21
-645.1993994231
 31
0.0
  0
LINE
  5
3C6
330
1F
100
AcDbEntity
  8
0
100
AcDbLine
 10
83.4194089624
 20
-645.1993994231
 30
0.0
 11
83.4194089624
 21
-660.1993994231
 31
0.0
  0
LINE
  5
3C7
330
1F
100
AcDbEntity
  8
0
100
AcDbLine
 10
83.4194089624
 20
-660.1993994231
 30
0.0
 11
98.4194089624
 21
-660.1993994231
 31
0.0
  0
LINE
  5
3C8
330
1F
100
AcDbEntity
  8
0
100
AcDbLine
 10
98.4194089624
 20
-660.1993994231
 30
0.0
 11
98.4194089624
 21
-645.1993994231
 31
0.0
  0
LINE
  5
3C9
330
1F
100
AcDbEntity
  8
0
100
AcDbLine
 10
81.9649262905
 20
-635.6993994231
 30
0.0
 11
66.9649262905
 21
-635.6993994231
 31
0.0
  0
LINE
  5
3CA
330
1F
100
AcDbEntity
  8
0
100
AcDbLine
 10
66.9649262905
 20
-635.6993994231
 30
0.0
 11
66.9649262905
 21
-650.6993994231
 31
0.0
  0
LINE
  5
3CB
330
1F
100
AcDbEntity
  8
0
100
AcDbLine
 10
66.9649262905
 20
-650.6993994231
 30
0.0
 11
81.9649262905
 21
-650.6993994231
 31
0.0
  0
LINE
  5
3CC
330
1F
100
AcDbEntity
  8
0
100
AcDbLine
 10
81.9649262905
 20
-650.6993994231
 30
0.0
 11
81.9649262905
 21
-635.6993994231
 31
0.0
  0
LINE
  5
3CD
330
1F
100
AcDbEntity
  8
0
100
AcDbLine
 10
65.5104436186
 20
-626.1993994231
 30
0.0
 11
50.5104436186
 21
-626.1993994231
 31
0.0
  0
LINE
  5
3CE
330
1F
100
AcDbEntity
  8
0
100
AcDbLine
 10
50.5104436186
 20
-626.1993994231
 30
0.0
 11
50.5104436186
 21
-641.1993994231
 31
0.0
  0
LINE
  5
3CF
330
1F
100
AcDbEntity
  8
0
100
AcDbLine
 10
50.5104436186
 20
-641.1993994231
 30
0.0
 11
65.5104436186
 21
-641.1993994231
 31
0.0
  0
LINE
  5
3D0
330
1F
100
AcDbEntity
  8
0
100
AcDbLine
 10
65.5104436186
 20
-641.1993994231
 30
0.0
 11
65.5104436186
 21
-626.1993994231
 31
0.0
  0
LINE
  5
3D1
330
1F
100
AcDbEntity
  8
0
100
AcDbLine
 10
49.0559609467
 20
-616.6993994231
 30
0.0
 11
34.0559609467
 21
-616.6993994231
 31
0.0
  0
LINE
  5
3D2
330
1F
100
AcDbEntity
  8
0
100
AcDbLine
 10
34.0559609467
 20
-616.6993994231
 30
0.0
 11
34.0559609467
 21
-631.6993994231
 31
0.0
  0
LINE
  5
3D3
330
1F
100
AcDbEntity
  8
0
100
AcDbLine
 10
34.0559609467
 20
-631.6993994231
 30
0.0
 11
49.0559609467
 21
-631.6993994231
 31
0.0
  0
LINE
  5
3D4
330
1F
100
AcDbEntity
  8
0
100
AcDbLine
 10
49.0559609467
 20
-631.6993994231
 30
0.0
 11
49.0559609467
 21
-616.6993994231
 31
0.0
  0
LINE
  5
3D5
330
1F
100
AcDbEntity
  8
0
100
AcDbLine
 10
32.6014782748
 20
-607.1993994231
 30
0.0
 11
17.6014782748
 21
-607.1993994231
 31
0.0
  0
LINE
  5
3D6
330
1F
100
AcDbEntity
  8
0
100
AcDbLine
 10
17.6014782748
 20
-607.1993994231
 30
0.0
 11
17.6014782748
 21
-622.1993994231
 31
0.0
  0
LINE
  5
3D7
330
1F
100
AcDbEntity
  8
0
100
AcDbLine
 10
17.6014782748
 20
-622.1993994231
 30
0.0
 11
32.6014782748
 21
-622.1993994231
 31
0.0
  0
LINE
  5
3D8
330
1F
100
AcDbEntity
  8
0
100
AcDbLine
 10
32.6014782748
 20
-622.1993994231
 30
0.0
 11
32.6014782748
 21
-607.1993994231
 31
0.0
  0
LINE
  5
3D9
330
1F
100
AcDbEntity
  8
0
100
AcDbLine
 10
16.1469956029
 20
-597.6993994231
 30
0.0
 11
1.1469956029
 21
-597.6993994231
 31
0.0
  0
LINE
  5
3DA
330
1F
100
AcDbEntity
  8
0
100
AcDbLine
 10
1.1469956029
 20
-597.6993994231
 30
0.0
 11
1.1469956029
 21
-612.6993994231
 31
0.0
  0
LINE
  5
3DB
330
1F
100
AcDbEntity
  8
0
100
AcDbLine
 10
1.1469956029
 20
-612.6993994231
 30
0.0
 11
16.1469956029
 21
-612.6993994231
 31
0.0
  0
LINE
  5
3DC
330
1F
100
AcDbEntity
  8
0
100
AcDbLine
 10
16.1469956029
 20
-612.6993994231
 30
0.0
 11
16.1469956029
 21
-597.6993994231
 31
0.0
  0
LINE
  5
3DD
330
1F
100
AcDbEntity
  8
0
100
AcDbLine
 10
-0.307487069
 20
-588.1993994231
 30
0.0
 11
-15.307487069
 21
-588.1993994231
 31
0.0
  0
LINE
  5
3DE
330
1F
100
AcDbEntity
  8
0
100
AcDbLine
 10
-15.307487069
 20
-588.1993994231
 30
0.0
 11
-15.307487069
 21
-603.1993994231
 31
0.0
  0
LINE
  5
3DF
330
1F
100
AcDbEntity
  8
0
100
AcDbLine
 10
-15.307487069
 20
-603.1993994231
 30
0.0
 11
-0.307487069
 21
-603.1993994231
 31
0.0
  0
LINE
  5
3E0
330
1F
100
AcDbEntity
  8
0
100
AcDbLine
 10
-0.307487069
 20
-603.1993994231
 30
0.0
 11
-0.307487069
 21
-588.1993994231
 31
0.0
  0
LINE
  5
3E1
330
1F
100
AcDbEntity
  8
0
100
AcDbLine
 10
-16.7619697409
 20
-578.6993994231
 30
0.0
 11
-31.7619697409
 21
-578.6993994231
 31
0.0
  0
LINE
  5
3E2
330
1F
100
AcDbEntity
  8
0
100
AcDbLine
 10
-31.7619697409
 20
-578.6993994231
 30
0.0
 11
-31.7619697409
 21
-593.6993994231
 31
0.0
  0
LINE
  5
3E3
330
1F
100
AcDbEntity
  8
0
100
AcDbLine
 10
-31.7619697409
 20
-593.6993994231
 30
0.0
 11
-16.7619697409
 21
-593.6993994231
 31
0.0
  0
LINE
  5
3E4
330
1F
100
AcDbEntity
  8
0
100
AcDbLine
 10
-16.7619697409
 20
-593.6993994231
 30
0.0
 11
-16.7619697409
 21
-578.6993994231
 31
0.0
  0
LINE
  5
3E5
330
1F
100
AcDbEntity
  8
0
100
AcDbLine
 10
-33.2164524128
 20
-569.1993994231
 30
0.0
 11
-48.2164524128
 21
-569.1993994231
 31
0.0
  0
LINE
  5
3E6
330
1F
100
AcDbEntity
  8
0
100
AcDbLine
 10
-48.2164524128
 20
-569.1993994231
 30
0.0
 11
-48.2164524128
 21
-584.1993994231
 31
0.0
  0
LINE
  5
3E7
330
1F
100
AcDbEntity
  8
0
100
AcDbLine
 10
-48.2164524128
 20
-584.1993994231
 30
0.0
 11
-33.2164524128
 21
-584.1993994231
 31
0.0
  0
LINE
  5
3E8
330
1F
100
AcDbEntity
  8
0
100
AcDbLine
 10
-33.2164524128
 20
-584.1993994231
 30
0.0
 11
-33.2164524128
 21
-569.1993994231
 31
0.0
  0
LINE
  5
3E9
330
1F
100
AcDbEntity
  8
0
100
AcDbLine
 10
-49.6709350847
 20
-559.6993994231
 30
0.0
 11
-64.6709350847
 21
-559.6993994231
 31
0.0
  0
LINE
  5
3EA
330
1F
100
AcDbEntity
  8
0
100
AcDbLine
 10
-64.6709350847
 20
-559.6993994231
 30
0.0
 11
-64.6709350847
 21
-574.6993994231
 31
0.0
  0
LINE
  5
3EB
330
1F
100
AcDbEntity
  8
0
100
AcDbLine
 10
-64.6709350847
 20
-574.6993994231
 30
0.0
 11
-49.6709350847
 21
-574.6993994231
 31
0.0
  0
LINE
  5
3EC
330
1F
100
AcDbEntity
  8
0
100
AcDbLine
 10
-49.6709350847
 20
-574.6993994231
 30
0.0
 11
-49.6709350847
 21
-559.6993994231
 31
0.0
  0
LINE
  5
3ED
330
1F
100
AcDbEntity
  8
0
100
AcDbLine
 10
197.1463049938
 20
-683.1993994231
 30
0.0
 11
182.1463049938
 21
-683.1993994231
 31
0.0
  0
LINE
  5
3EE
330
1F
100
AcDbEntity
  8
0
100
AcDbLine
 10
182.1463049938
 20
-683.1993994231
 30
0.0
 11
182.1463049938
 21
-698.1993994231
 31
0.0
  0
LINE
  5
3EF
330
1F
100
AcDbEntity
  8
0
100
AcDbLine
 10
182.1463049938
 20
-698.1993994231
 30
0.0
 11
197.1463049938
 21
-698.1993994231
 31
0.0
  0
LINE
  5
3F0
330
1F
100
AcDbEntity
  8
0
100
AcDbLine
 10
197.1463049938
 20
-698.1993994231
 30
0.0
 11
197.1463049938
 21
-683.1993994231
 31
0.0
  0
LINE
  5
3F1
330
1F
100
AcDbEntity
  8
0
100
AcDbLine
 10
180.6918223219
 20
-673.6993994231
 30
0.0
 11
165.6918223219
 21
-673.6993994231
 31
0.0
  0
LINE
  5
3F2
330
1F
100
AcDbEntity
  8
0
100
AcDbLine
 10
165.6918223219
 20
-673.6993994231
 30
0.0
 11
165.6918223219
 21
-688.6993994231
 31
0.0
  0
LINE
  5
3F3
330
1F
100
AcDbEntity
  8
0
100
AcDbLine
 10
165.6918223219
 20
-688.6993994231
 30
0.0
 11
180.6918223219
 21
-688.6993994231
 31
0.0
  0
LINE
  5
3F4
330
1F
100
AcDbEntity
  8
0
100
AcDbLine
 10
180.6918223219
 20
-688.6993994231
 30
0.0
 11
180.6918223219
 21
-673.6993994231
 31
0.0
  0
LINE
  5
3F5
330
1F
100
AcDbEntity
  8
0
100
AcDbLine
 10
164.23733965
 20
-664.1993994231
 30
0.0
 11
149.23733965
 21
-664.1993994231
 31
0.0
  0
LINE
  5
3F6
330
1F
100
AcDbEntity
  8
0
100
AcDbLine
 10
149.23733965
 20
-664.1993994231
 30
0.0
 11
149.23733965
 21
-679.1993994231
 31
0.0
  0
LINE
  5
3F7
330
1F
100
AcDbEntity
  8
0
100
AcDbLine
 10
149.23733965
 20
-679.1993994231
 30
0.0
 11
164.23733965
 21
-679.1993994231
 31
0.0
  0
LINE
  5
3F8
330
1F
100
AcDbEntity
  8
0
100
AcDbLine
 10
164.23733965
 20
-679.1993994231
 30
0.0
 11
164.23733965
 21
-664.1993994231
 31
0.0
  0
LINE
  5
3F9
330
1F
100
AcDbEntity
  8
0
100
AcDbLine
 10
147.7828569781
 20
-654.6993994231
 30
0.0
 11
132.7828569781
 21
-654.6993994231
 31
0.0
  0
LINE
  5
3FA
330
1F
100
AcDbEntity
  8
0
100
AcDbLine
 10
132.7828569781
 20
-654.6993994231
 30
0.0
 11
132.7828569781
 21
-669.6993994231
 31
0.0
  0
LINE
  5
3FB
330
1F
100
AcDbEntity
  8
0
100
AcDbLine
 10
132.7828569781
 20
-669.6993994231
 30
0.0
 11
147.7828569781
 21
-669.6993994231
 31
0.0
  0
LINE
  5
3FC
330
1F
100
AcDbEntity
  8
0
100
AcDbLine
 10
147.7828569781
 20
-669.6993994231
 30
0.0
 11
147.7828569781
 21
-654.6993994231
 31
0.0
  0
LINE
  5
3FD
330
1F
100
AcDbEntity
  8
0
100
AcDbLine
 10
131.3283743062
 20
-645.1993994231
 30
0.0
 11
116.3283743062
 21
-645.1993994231
 31
0.0
  0
LINE
  5
3FE
330
1F
100
AcDbEntity
  8
0
100
AcDbLine
 10
116.3283743062
 20
-645.1993994231
 30
0.0
 11
116.3283743062
 21
-660.1993994231
 31
0.0
  0
LINE
  5
3FF
330
1F
100
AcDbEntity
  8
0
100
AcDbLine
 10
116.3283743062
 20
-660.1993994231
 30
0.0
 11
131.3283743062
 21
-660.1993994231
 31
0.0
  0
LINE
  5
400
330
1F
100
AcDbEntity
  8
0
100
AcDbLine
 10
131.3283743062
 20
-660.1993994231
 30
0.0
 11
131.3283743062
 21
-645.1993994231
 31
0.0
  0
LINE
  5
401
330
1F
100
AcDbEntity
  8
0
100
AcDbLine
 10
114.8738916343
 20
-635.6993994231
 30
0.0
 11
99.8738916343
 21
-635.6993994231
 31
0.0
  0
LINE
  5
402
330
1F
100
AcDbEntity
  8
0
100
AcDbLine
 10
99.8738916343
 20
-635.6993994231
 30
0.0
 11
99.8738916343
 21
-650.6993994231
 31
0.0
  0
LINE
  5
403
330
1F
100
AcDbEntity
  8
0
100
AcDbLine
 10
99.8738916343
 20
-650.6993994231
 30
0.0
 11
114.8738916343
 21
-650.6993994231
 31
0.0
  0
LINE
  5
404
330
1F
100
AcDbEntity
  8
0
100
AcDbLine
 10
114.8738916343
 20
-650.6993994231
 30
0.0
 11
114.8738916343
 21
-635.6993994231
 31
0.0
  0
LINE
  5
405
330
1F
100
AcDbEntity
  8
0
100
AcDbLine
 10
98.4194089624
 20
-626.1993994231
 30
0.0
 11
83.4194089624
 21
-626.1993994231
 31
0.0
  0
LINE
  5
406
330
1F
100
AcDbEntity
  8
0
100
AcDbLine
 10
83.4194089624
 20
-626.1993994231
 30
0.0
 11
83.4194089624
 21
-641.1993994231
 31
0.0
  0
LINE
  5
407
330
1F
100
AcDbEntity
  8
0
100
AcDbLine
 10
83.4194089624
 20
-641.1993994231
 30
0.0
 11
98.4194089624
 21
-641.1993994231
 31
0.0
  0
LINE
  5
408
330
1F
100
AcDbEntity
  8
0
100
AcDbLine
 10
98.4194089624
 20
-641.1993994231
 30
0.0
 11
98.4194089624
 21
-626.1993994231
 31
0.0
  0
LINE
  5
409
330
1F
100
AcDbEntity
  8
0
100
AcDbLine
 10
81.9649262905
 20
-616.6993994231
 30
0.0
 11
66.9649262905
 21
-616.6993994231
 31
0.0
  0
LINE
  5
40A
330
1F
100
AcDbEntity
  8
0
100
AcDbLine
 10
66.9649262905
 20
-616.6993994231
 30
0.0
 11
66.9649262905
 21
-631.6993994231
 31
0.0
  0
LINE
  5
40B
330
1F
100
AcDbEntity
  8
0
100
AcDbLine
 10
66.9649262905
 20
-631.6993994231
 30
0.0
 11
81.9649262905
 21
-631.6993994231
 31
0.0
  0
LINE
  5
40C
330
1F
100
AcDbEntity
  8
0
100
AcDbLine
 10
81.9649262905
 20
-631.6993994231
 30
0.0
 11
81.9649262905
 21
-616.6993994231
 31
0.0
  0
LINE
  5
40D
330
1F
100
AcDbEntity
  8
0
100
AcDbLine
 10
65.5104436186
 20
-607.1993994231
 30
0.0
 11
50.5104436186
 21
-607.1993994231
 31
0.0
  0
LINE
  5
40E
330
1F
100
AcDbEntity
  8
0
100
AcDbLine
 10
50.5104436186
 20
-607.1993994231
 30
0.0
 11
50.5104436186
 21
-622.1993994231
 31
0.0
  0
LINE
  5
40F
330
1F
100
AcDbEntity
  8
0
100
AcDbLine
 10
50.5104436186
 20
-622.1993994231
 30
0.0
 11
65.5104436186
 21
-622.1993994231
 31
0.0
  0
LINE
  5
410
330
1F
100
AcDbEntity
  8
0
100
AcDbLine
 10
65.5104436186
 20
-622.1993994231
 30
0.0
 11
65.5104436186
 21
-607.1993994231
 31
0.0
  0
LINE
  5
411
330
1F
100
AcDbEntity
  8
0
100
AcDbLine
 10
49.0559609467
 20
-597.6993994231
 30
0.0
 11
34.0559609467
 21
-597.6993994231
 31
0.0
  0
LINE
  5
412
330
1F
100
AcDbEntity
  8
0
100
AcDbLine
 10
34.0559609467
 20
-597.6993994231
 30
0.0
 11
34.0559609467
 21
-612.6993994231
 31
0.0
  0
LINE
  5
413
330
1F
100
AcDbEntity
  8
0
100
AcDbLine
 10
34.0559609467
 20
-612.6993994231
 30
0.0
 11
49.0559609467
 21
-612.6993994231
 31
0.0
  0
LINE
  5
414
330
1F
100
AcDbEntity
  8
0
100
AcDbLine
 10
49.0559609467
 20
-612.6993994231
 30
0.0
 11
49.0559609467
 21
-597.6993994231
 31
0.0
  0
LINE
  5
415
330
1F
100
AcDbEntity
  8
0
100
AcDbLine
 10
32.6014782748
 20
-588.1993994231
 30
0.0
 11
17.6014782748
 21
-588.1993994231
 31
0.0
  0
LINE
  5
416
330
1F
100
AcDbEntity
  8
0
100
AcDbLine
 10
17.6014782748
 20
-588.1993994231
 30
0.0
 11
17.6014782748
 21
-603.1993994231
 31
0.0
  0
LINE
  5
417
330
1F
100
AcDbEntity
  8
0
100
AcDbLine
 10
17.6014782748
 20
-603.1993994231
 30
0.0
 11
32.6014782748
 21
-603.1993994231
 31
0.0
  0
LINE
  5
418
330
1F
100
AcDbEntity
  8
0
100
AcDbLine
 10
32.6014782748
 20
-603.1993994231
 30
0.0
 11
32.6014782748
 21
-588.1993994231
 31
0.0
  0
LINE
  5
419
330
1F
100
AcDbEntity
  8
0
100
AcDbLine
 10
16.1469956029
 20
-578.6993994231
 30
0.0
 11
1.1469956029
 21
-578.6993994231
 31
0.0
  0
LINE
  5
41A
330
1F
100
AcDbEntity
  8
0
100
AcDbLine
 10
1.1469956029
 20
-578.6993994231
 30
0.0
 11
1.1469956029
 21
-593.6993994231
 31
0.0
  0
LINE
  5
41B
330
1F
100
AcDbEntity
  8
0
100
AcDbLine
 10
1.1469956029
 20
-593.6993994231
 30
0.0
 11
16.1469956029
 21
-593.6993994231
 31
0.0
  0
LINE
  5
41C
330
1F
100
AcDbEntity
  8
0
100
AcDbLine
 10
16.1469956029
 20
-593.6993994231
 30
0.0
 11
16.1469956029
 21
-578.6993994231
 31
0.0
  0
LINE
  5
41D
330
1F
100
AcDbEntity
  8
0
100
AcDbLine
 10
-0.307487069
 20
-569.1993994231
 30
0.0
 11
-15.307487069
 21
-569.1993994231
 31
0.0
  0
LINE
  5
41E
330
1F
100
AcDbEntity
  8
0
100
AcDbLine
 10
-15.307487069
 20
-569.1993994231
 30
0.0
 11
-15.307487069
 21
-584.1993994231
 31
0.0
  0
LINE
  5
41F
330
1F
100
AcDbEntity
  8
0
100
AcDbLine
 10
-15.307487069
 20
-584.1993994231
 30
0.0
 11
-0.307487069
 21
-584.1993994231
 31
0.0
  0
LINE
  5
420
330
1F
100
AcDbEntity
  8
0
100
AcDbLine
 10
-0.307487069
 20
-584.1993994231
 30
0.0
 11
-0.307487069
 21
-569.1993994231
 31
0.0
  0
LINE
  5
421
330
1F
100
AcDbEntity
  8
0
100
AcDbLine
 10
-16.7619697409
 20
-559.6993994231
 30
0.0
 11
-31.7619697409
 21
-559.6993994231
 31
0.0
  0
LINE
  5
422
330
1F
100
AcDbEntity
  8
0
100
AcDbLine
 10
-31.7619697409
 20
-559.6993994231
 30
0.0
 11
-31.7619697409
 21
-574.6993994231
 31
0.0
  0
LINE
  5
423
330
1F
100
AcDbEntity
  8
0
100
AcDbLine
 10
-31.7619697409
 20
-574.6993994231
 30
0.0
 11
-16.7619697409
 21
-574.6993994231
 31
0.0
  0
LINE
  5
424
330
1F
100
AcDbEntity
  8
0
100
AcDbLine
 10
-16.7619697409
 20
-574.6993994231
 30
0.0
 11
-16.7619697409
 21
-559.6993994231
 31
0.0
  0
LINE
  5
425
330
1F
100
AcDbEntity
  8
0
100
AcDbLine
 10
-33.2164524128
 20
-550.1993994231
 30
0.0
 11
-48.2164524128
 21
-550.1993994231
 31
0.0
  0
LINE
  5
426
330
1F
100
AcDbEntity
  8
0
100
AcDbLine
 10
-48.2164524128
 20
-550.1993994231
 30
0.0
 11
-48.2164524128
 21
-565.1993994231
 31
0.0
  0
LINE
  5
427
330
1F
100
AcDbEntity
  8
0
100
AcDbLine
 10
-48.2164524128
 20
-565.1993994231
 30
0.0
 11
-33.2164524128
 21
-565.1993994231
 31
0.0
  0
LINE
  5
428
330
1F
100
AcDbEntity
  8
0
100
AcDbLine
 10
-33.2164524128
 20
-565.1993994231
 30
0.0
 11
-33.2164524128
 21
-550.1993994231
 31
0.0
  0
LINE
  5
429
330
1F
100
AcDbEntity
  8
0
100
AcDbLine
 10
-49.6709350847
 20
-540.6993994231
 30
0.0
 11
-64.6709350847
 21
-540.6993994231
 31
0.0
  0
LINE
  5
42A
330
1F
100
AcDbEntity
  8
0
100
AcDbLine
 10
-64.6709350847
 20
-540.6993994231
 30
0.0
 11
-64.6709350847
 21
-555.6993994231
 31
0.0
  0
LINE
  5
42B
330
1F
100
AcDbEntity
  8
0
100
AcDbLine
 10
-64.6709350847
 20
-555.6993994231
 30
0.0
 11
-49.6709350847
 21
-555.6993994231
 31
0.0
  0
LINE
  5
42C
330
1F
100
AcDbEntity
  8
0
100
AcDbLine
 10
-49.6709350847
 20
-555.6993994231
 30
0.0
 11
-49.6709350847
 21
-540.6993994231
 31
0.0
  0
LINE
  5
42D
330
1F
100
AcDbEntity
  8
0
100
AcDbLine
 10
213.6007876657
 20
-673.6993994231
 30
0.0
 11
198.6007876657
 21
-673.6993994231
 31
0.0
  0
LINE
  5
42E
330
1F
100
AcDbEntity
  8
0
100
AcDbLine
 10
198.6007876657
 20
-673.6993994231
 30
0.0
 11
198.6007876657
 21
-688.6993994231
 31
0.0
  0
LINE
  5
42F
330
1F
100
AcDbEntity
  8
0
100
AcDbLine
 10
198.6007876657
 20
-688.6993994231
 30
0.0
 11
213.6007876657
 21
-688.6993994231
 31
0.0
  0
LINE
  5
430
330
1F
100
AcDbEntity
  8
0
100
AcDbLine
 10
213.6007876657
 20
-688.6993994231
 30
0.0
 11
213.6007876657
 21
-673.6993994231
 31
0.0
  0
LINE
  5
431
330
1F
100
AcDbEntity
  8
0
100
AcDbLine
 10
197.1463049938
 20
-664.1993994231
 30
0.0
 11
182.1463049938
 21
-664.1993994231
 31
0.0
  0
LINE
  5
432
330
1F
100
AcDbEntity
  8
0
100
AcDbLine
 10
182.1463049938
 20
-664.1993994231
 30
0.0
 11
182.1463049938
 21
-679.1993994231
 31
0.0
  0
LINE
  5
433
330
1F
100
AcDbEntity
  8
0
100
AcDbLine
 10
182.1463049938
 20
-679.1993994231
 30
0.0
 11
197.1463049938
 21
-679.1993994231
 31
0.0
  0
LINE
  5
434
330
1F
100
AcDbEntity
  8
0
100
AcDbLine
 10
197.1463049938
 20
-679.1993994231
 30
0.0
 11
197.1463049938
 21
-664.1993994231
 31
0.0
  0
LINE
  5
435
330
1F
100
AcDbEntity
  8
0
100
AcDbLine
 10
180.6918223219
 20
-654.6993994231
 30
0.0
 11
165.6918223219
 21
-654.6993994231
 31
0.0
  0
LINE
  5
436
330
1F
100
AcDbEntity
  8
0
100
AcDbLine
 10
165.6918223219
 20
-654.6993994231
 30
0.0
 11
165.6918223219
 21
-669.6993994231
 31
0.0
  0
LINE
  5
437
330
1F
100
AcDbEntity
  8
0
100
AcDbLine
 10
165.6918223219
 20
-669.6993994231
 30
0.0
 11
180.6918223219
 21
-669.6993994231
 31
0.0
  0
LINE
  5
438
330
1F
100
AcDbEntity
  8
0
100
AcDbLine
 10
180.6918223219
 20
-669.6993994231
 30
0.0
 11
180.6918223219
 21
-654.6993994231
 31
0.0
  0
LINE
  5
439
330
1F
100
AcDbEntity
  8
0
100
AcDbLine
 10
164.23733965
 20
-645.1993994231
 30
0.0
 11
149.23733965
 21
-645.1993994231
 31
0.0
  0
LINE
  5
43A
330
1F
100
AcDbEntity
  8
0
100
AcDbLine
 10
149.23733965
 20
-645.1993994231
 30
0.0
 11
149.23733965
 21
-660.1993994231
 31
0.0
  0
LINE
  5
43B
330
1F
100
AcDbEntity
  8
0
100
AcDbLine
 10
149.23733965
 20
-660.1993994231
 30
0.0
 11
164.23733965
 21
-660.1993994231
 31
0.0
  0
LINE
  5
43C
330
1F
100
AcDbEntity
  8
0
100
AcDbLine
 10
164.23733965
 20
-660.1993994231
 30
0.0
 11
164.23733965
 21
-645.1993994231
 31
0.0
  0
LINE
  5
43D
330
1F
100
AcDbEntity
  8
0
100
AcDbLine
 10
147.7828569781
 20
-635.6993994231
 30
0.0
 11
132.7828569781
 21
-635.6993994231
 31
0.0
  0
LINE
  5
43E
330
1F
100
AcDbEntity
  8
0
100
AcDbLine
 10
132.7828569781
 20
-635.6993994231
 30
0.0
 11
132.7828569781
 21
-650.6993994231
 31
0.0
  0
LINE
  5
43F
330
1F
100
AcDbEntity
  8
0
100
AcDbLine
 10
132.7828569781
 20
-650.6993994231
 30
0.0
 11
147.7828569781
 21
-650.6993994231
 31
0.0
  0
LINE
  5
440
330
1F
100
AcDbEntity
  8
0
100
AcDbLine
 10
147.7828569781
 20
-650.6993994231
 30
0.0
 11
147.7828569781
 21
-635.6993994231
 31
0.0
  0
LINE
  5
441
330
1F
100
AcDbEntity
  8
0
100
AcDbLine
 10
131.3283743062
 20
-626.1993994231
 30
0.0
 11
116.3283743062
 21
-626.1993994231
 31
0.0
  0
LINE
  5
442
330
1F
100
AcDbEntity
  8
0
100
AcDbLine
 10
116.3283743062
 20
-626.1993994231
 30
0.0
 11
116.3283743062
 21
-641.1993994231
 31
0.0
  0
LINE
  5
443
330
1F
100
AcDbEntity
  8
0
100
AcDbLine
 10
116.3283743062
 20
-641.1993994231
 30
0.0
 11
131.3283743062
 21
-641.1993994231
 31
0.0
  0
LINE
  5
444
330
1F
100
AcDbEntity
  8
0
100
AcDbLine
 10
131.3283743062
 20
-641.1993994231
 30
0.0
 11
131.3283743062
 21
-626.1993994231
 31
0.0
  0
LINE
  5
445
330
1F
100
AcDbEntity
  8
0
100
AcDbLine
 10
114.8738916343
 20
-616.6993994231
 30
0.0
 11
99.8738916343
 21
-616.6993994231
 31
0.0
  0
LINE
  5
446
330
1F
100
AcDbEntity
  8
0
100
AcDbLine
 10
99.8738916343
 20
-616.6993994231
 30
0.0
 11
99.8738916343
 21
-631.6993994231
 31
0.0
  0
LINE
  5
447
330
1F
100
AcDbEntity
  8
0
100
AcDbLine
 10
99.8738916343
 20
-631.6993994231
 30
0.0
 11
114.8738916343
 21
-631.6993994231
 31
0.0
  0
LINE
  5
448
330
1F
100
AcDbEntity
  8
0
100
AcDbLine
 10
114.8738916343
 20
-631.6993994231
 30
0.0
 11
114.8738916343
 21
-616.6993994231
 31
0.0
  0
LINE
  5
449
330
1F
100
AcDbEntity
  8
0
100
AcDbLine
 10
98.4194089624
 20
-607.1993994231
 30
0.0
 11
83.4194089624
 21
-607.1993994231
 31
0.0
  0
LINE
  5
44A
330
1F
100
AcDbEntity
  8
0
100
AcDbLine
 10
83.4194089624
 20
-607.1993994231
 30
0.0
 11
83.4194089624
 21
-622.1993994231
 31
0.0
  0
LINE
  5
44B
330
1F
100
AcDbEntity
  8
0
100
AcDbLine
 10
83.4194089624
 20
-622.1993994231
 30
0.0
 11
98.4194089624
 21
-622.1993994231
 31
0.0
  0
LINE
  5
44C
330
1F
100
AcDbEntity
  8
0
100
AcDbLine
 10
98.4194089624
 20
-622.1993994231
 30
0.0
 11
98.4194089624
 21
-607.1993994231
 31
0.0
  0
LINE
  5
44D
330
1F
100
AcDbEntity
  8
0
100
AcDbLine
 10
65.5104436186
 20
-588.1993994231
 30
0.0
 11
50.5104436186
 21
-588.1993994231
 31
0.0
  0
LINE
  5
44E
330
1F
100
AcDbEntity
  8
0
100
AcDbLine
 10
50.5104436186
 20
-588.1993994231
 30
0.0
 11
50.5104436186
 21
-603.1993994231
 31
0.0
  0
LINE
  5
44F
330
1F
100
AcDbEntity
  8
0
100
AcDbLine
 10
50.5104436186
 20
-603.1993994231
 30
0.0
 11
65.5104436186
 21
-603.1993994231
 31
0.0
  0
LINE
  5
450
330
1F
100
AcDbEntity
  8
0
100
AcDbLine
 10
65.5104436186
 20
-603.1993994231
 30
0.0
 11
65.5104436186
 21
-588.1993994231
 31
0.0
  0
LINE
  5
451
330
1F
100
AcDbEntity
  8
0
100
AcDbLine
 10
49.0559609467
 20
-578.6993994231
 30
0.0
 11
34.0559609467
 21
-578.6993994231
 31
0.0
  0
LINE
  5
452
330
1F
100
AcDbEntity
  8
0
100
AcDbLine
 10
34.0559609467
 20
-578.6993994231
 30
0.0
 11
34.0559609467
 21
-593.6993994231
 31
0.0
  0
LINE
  5
453
330
1F
100
AcDbEntity
  8
0
100
AcDbLine
 10
34.0559609467
 20
-593.6993994231
 30
0.0
 11
49.0559609467
 21
-593.6993994231
 31
0.0
  0
LINE
  5
454
330
1F
100
AcDbEntity
  8
0
100
AcDbLine
 10
49.0559609467
 20
-593.6993994231
 30
0.0
 11
49.0559609467
 21
-578.6993994231
 31
0.0
  0
LINE
  5
455
330
1F
100
AcDbEntity
  8
0
100
AcDbLine
 10
32.6014782748
 20
-569.1993994231
 30
0.0
 11
17.6014782748
 21
-569.1993994231
 31
0.0
  0
LINE
  5
456
330
1F
100
AcDbEntity
  8
0
100
AcDbLine
 10
17.6014782748
 20
-569.1993994231
 30
0.0
 11
17.6014782748
 21
-584.1993994231
 31
0.0
  0
LINE
  5
457
330
1F
100
AcDbEntity
  8
0
100
AcDbLine
 10
17.6014782748
 20
-584.1993994231
 30
0.0
 11
32.6014782748
 21
-584.1993994231
 31
0.0
  0
LINE
  5
458
330
1F
100
AcDbEntity
  8
0
100
AcDbLine
 10
32.6014782748
 20
-584.1993994231
 30
0.0
 11
32.6014782748
 21
-569.1993994231
 31
0.0
  0
LINE
  5
459
330
1F
100
AcDbEntity
  8
0
100
AcDbLine
 10
16.1469956029
 20
-559.6993994231
 30
0.0
 11
1.1469956029
 21
-559.6993994231
 31
0.0
  0
LINE
  5
45A
330
1F
100
AcDbEntity
  8
0
100
AcDbLine
 10
1.1469956029
 20
-559.6993994231
 30
0.0
 11
1.1469956029
 21
-574.6993994231
 31
0.0
  0
LINE
  5
45B
330
1F
100
AcDbEntity
  8
0
100
AcDbLine
 10
1.1469956029
 20
-574.6993994231
 30
0.0
 11
16.1469956029
 21
-574.6993994231
 31
0.0
  0
LINE
  5
45C
330
1F
100
AcDbEntity
  8
0
100
AcDbLine
 10
16.1469956029
 20
-574.6993994231
 30
0.0
 11
16.1469956029
 21
-559.6993994231
 31
0.0
  0
LINE
  5
45D
330
1F
100
AcDbEntity
  8
0
100
AcDbLine
 10
-0.307487069
 20
-550.1993994231
 30
0.0
 11
-15.307487069
 21
-550.1993994231
 31
0.0
  0
LINE
  5
45E
330
1F
100
AcDbEntity
  8
0
100
AcDbLine
 10
-15.307487069
 20
-550.1993994231
 30
0.0
 11
-15.307487069
 21
-565.1993994231
 31
0.0
  0
LINE
  5
45F
330
1F
100
AcDbEntity
  8
0
100
AcDbLine
 10
-15.307487069
 20
-565.1993994231
 30
0.0
 11
-0.307487069
 21
-565.1993994231
 31
0.0
  0
LINE
  5
460
330
1F
100
AcDbEntity
  8
0
100
AcDbLine
 10
-0.307487069
 20
-565.1993994231
 30
0.0
 11
-0.307487069
 21
-550.1993994231
 31
0.0
  0
LINE
  5
461
330
1F
100
AcDbEntity
  8
0
100
AcDbLine
 10
-16.7619697409
 20
-540.6993994231
 30
0.0
 11
-31.7619697409
 21
-540.6993994231
 31
0.0
  0
LINE
  5
462
330
1F
100
AcDbEntity
  8
0
100
AcDbLine
 10
-31.7619697409
 20
-540.6993994231
 30
0.0
 11
-31.7619697409
 21
-555.6993994231
 31
0.0
  0
LINE
  5
463
330
1F
100
AcDbEntity
  8
0
100
AcDbLine
 10
-31.7619697409
 20
-555.6993994231
 30
0.0
 11
-16.7619697409
 21
-555.6993994231
 31
0.0
  0
LINE
  5
464
330
1F
100
AcDbEntity
  8
0
100
AcDbLine
 10
-16.7619697409
 20
-555.6993994231
 30
0.0
 11
-16.7619697409
 21
-540.6993994231
 31
0.0
  0
LINE
  5
465
330
1F
100
AcDbEntity
  8
0
100
AcDbLine
 10
-33.2164524128
 20
-531.1993994231
 30
0.0
 11
-48.2164524128
 21
-531.1993994231
 31
0.0
  0
LINE
  5
466
330
1F
100
AcDbEntity
  8
0
100
AcDbLine
 10
-48.2164524128
 20
-531.1993994231
 30
0.0
 11
-48.2164524128
 21
-546.1993994231
 31
0.0
  0
LINE
  5
467
330
1F
100
AcDbEntity
  8
0
100
AcDbLine
 10
-48.2164524128
 20
-546.1993994231
 30
0.0
 11
-33.2164524128
 21
-546.1993994231
 31
0.0
  0
LINE
  5
468
330
1F
100
AcDbEntity
  8
0
100
AcDbLine
 10
-33.2164524128
 20
-546.1993994231
 30
0.0
 11
-33.2164524128
 21
-531.1993994231
 31
0.0
  0
LINE
  5
469
330
1F
100
AcDbEntity
  8
0
100
AcDbLine
 10
-49.6709350847
 20
-521.6993994231
 30
0.0
 11
-64.6709350847
 21
-521.6993994231
 31
0.0
  0
LINE
  5
46A
330
1F
100
AcDbEntity
  8
0
100
AcDbLine
 10
-64.6709350847
 20
-521.6993994231
 30
0.0
 11
-64.6709350847
 21
-536.6993994231
 31
0.0
  0
LINE
  5
46B
330
1F
100
AcDbEntity
  8
0
100
AcDbLine
 10
-64.6709350847
 20
-536.6993994231
 30
0.0
 11
-49.6709350847
 21
-536.6993994231
 31
0.0
  0
LINE
  5
46C
330
1F
100
AcDbEntity
  8
0
100
AcDbLine
 10
-49.6709350847
 20
-536.6993994231
 30
0.0
 11
-49.6709350847
 21
-521.6993994231
 31
0.0
  0
LINE
  5
46D
330
1F
100
AcDbEntity
  8
0
100
AcDbLine
 10
213.6007876657
 20
-654.6993994231
 30
0.0
 11
198.6007876657
 21
-654.6993994231
 31
0.0
  0
LINE
  5
46E
330
1F
100
AcDbEntity
  8
0
100
AcDbLine
 10
198.6007876657
 20
-654.6993994231
 30
0.0
 11
198.6007876657
 21
-669.6993994231
 31
0.0
  0
LINE
  5
46F
330
1F
100
AcDbEntity
  8
0
100
AcDbLine
 10
198.6007876657
 20
-669.6993994231
 30
0.0
 11
213.6007876657
 21
-669.6993994231
 31
0.0
  0
LINE
  5
470
330
1F
100
AcDbEntity
  8
0
100
AcDbLine
 10
213.6007876657
 20
-669.6993994231
 30
0.0
 11
213.6007876657
 21
-654.6993994231
 31
0.0
  0
LINE
  5
471
330
1F
100
AcDbEntity
  8
0
100
AcDbLine
 10
197.1463049938
 20
-645.1993994231
 30
0.0
 11
182.1463049938
 21
-645.1993994231
 31
0.0
  0
LINE
  5
472
330
1F
100
AcDbEntity
  8
0
100
AcDbLine
 10
182.1463049938
 20
-645.1993994231
 30
0.0
 11
182.1463049938
 21
-660.1993994231
 31
0.0
  0
LINE
  5
473
330
1F
100
AcDbEntity
  8
0
100
AcDbLine
 10
182.1463049938
 20
-660.1993994231
 30
0.0
 11
197.1463049938
 21
-660.1993994231
 31
0.0
  0
LINE
  5
474
330
1F
100
AcDbEntity
  8
0
100
AcDbLine
 10
197.1463049938
 20
-660.1993994231
 30
0.0
 11
197.1463049938
 21
-645.1993994231
 31
0.0
  0
LINE
  5
475
330
1F
100
AcDbEntity
  8
0
100
AcDbLine
 10
180.6918223219
 20
-635.6993994231
 30
0.0
 11
165.6918223219
 21
-635.6993994231
 31
0.0
  0
LINE
  5
476
330
1F
100
AcDbEntity
  8
0
100
AcDbLine
 10
165.6918223219
 20
-635.6993994231
 30
0.0
 11
165.6918223219
 21
-650.6993994231
 31
0.0
  0
LINE
  5
477
330
1F
100
AcDbEntity
  8
0
100
AcDbLine
 10
165.6918223219
 20
-650.6993994231
 30
0.0
 11
180.6918223219
 21
-650.6993994231
 31
0.0
  0
LINE
  5
478
330
1F
100
AcDbEntity
  8
0
100
AcDbLine
 10
180.6918223219
 20
-650.6993994231
 30
0.0
 11
180.6918223219
 21
-635.6993994231
 31
0.0
  0
LINE
  5
479
330
1F
100
AcDbEntity
  8
0
100
AcDbLine
 10
164.23733965
 20
-626.1993994231
 30
0.0
 11
149.23733965
 21
-626.1993994231
 31
0.0
  0
LINE
  5
47A
330
1F
100
AcDbEntity
  8
0
100
AcDbLine
 10
149.23733965
 20
-626.1993994231
 30
0.0
 11
149.23733965
 21
-641.1993994231
 31
0.0
  0
LINE
  5
47B
330
1F
100
AcDbEntity
  8
0
100
AcDbLine
 10
149.23733965
 20
-641.1993994231
 30
0.0
 11
164.23733965
 21
-641.1993994231
 31
0.0
  0
LINE
  5
47C
330
1F
100
AcDbEntity
  8
0
100
AcDbLine
 10
164.23733965
 20
-641.1993994231
 30
0.0
 11
164.23733965
 21
-626.1993994231
 31
0.0
  0
LINE
  5
47D
330
1F
100
AcDbEntity
  8
0
100
AcDbLine
 10
147.7828569781
 20
-616.6993994231
 30
0.0
 11
132.7828569781
 21
-616.6993994231
 31
0.0
  0
LINE
  5
47E
330
1F
100
AcDbEntity
  8
0
100
AcDbLine
 10
132.7828569781
 20
-616.6993994231
 30
0.0
 11
132.7828569781
 21
-631.6993994231
 31
0.0
  0
LINE
  5
47F
330
1F
100
AcDbEntity
  8
0
100
AcDbLine
 10
132.7828569781
 20
-631.6993994231
 30
0.0
 11
147.7828569781
 21
-631.6993994231
 31
0.0
  0
LINE
  5
480
330
1F
100
AcDbEntity
  8
0
100
AcDbLine
 10
147.7828569781
 20
-631.6993994231
 30
0.0
 11
147.7828569781
 21
-616.6993994231
 31
0.0
  0
LINE
  5
481
330
1F
100
AcDbEntity
  8
0
100
AcDbLine
 10
131.3283743062
 20
-607.1993994231
 30
0.0
 11
116.3283743062
 21
-607.1993994231
 31
0.0
  0
LINE
  5
482
330
1F
100
AcDbEntity
  8
0
100
AcDbLine
 10
116.3283743062
 20
-607.1993994231
 30
0.0
 11
116.3283743062
 21
-622.1993994231
 31
0.0
  0
LINE
  5
483
330
1F
100
AcDbEntity
  8
0
100
AcDbLine
 10
116.3283743062
 20
-622.1993994231
 30
0.0
 11
131.3283743062
 21
-622.1993994231
 31
0.0
  0
LINE
  5
484
330
1F
100
AcDbEntity
  8
0
100
AcDbLine
 10
131.3283743062
 20
-622.1993994231
 30
0.0
 11
131.3283743062
 21
-607.1993994231
 31
0.0
  0
LINE
  5
485
330
1F
100
AcDbEntity
  8
0
100
AcDbLine
 10
114.8738916343
 20
-597.6993994231
 30
0.0
 11
99.8738916343
 21
-597.6993994231
 31
0.0
  0
LINE
  5
486
330
1F
100
AcDbEntity
  8
0
100
AcDbLine
 10
99.8738916343
 20
-597.6993994231
 30
0.0
 11
99.8738916343
 21
-612.6993994231
 31
0.0
  0
LINE
  5
487
330
1F
100
AcDbEntity
  8
0
100
AcDbLine
 10
99.8738916343
 20
-612.6993994231
 30
0.0
 11
114.8738916343
 21
-612.6993994231
 31
0.0
  0
LINE
  5
488
330
1F
100
AcDbEntity
  8
0
100
AcDbLine
 10
114.8738916343
 20
-612.6993994231
 30
0.0
 11
114.8738916343
 21
-597.6993994231
 31
0.0
  0
LINE
  5
489
330
1F
100
AcDbEntity
  8
0
100
AcDbLine
 10
98.4194089624
 20
-588.1993994231
 30
0.0
 11
83.4194089624
 21
-588.1993994231
 31
0.0
  0
LINE
  5
48A
330
1F
100
AcDbEntity
  8
0
100
AcDbLine
 10
83.4194089624
 20
-588.1993994231
 30
0.0
 11
83.4194089624
 21
-603.1993994231
 31
0.0
  0
LINE
  5
48B
330
1F
100
AcDbEntity
  8
0
100
AcDbLine
 10
83.4194089624
 20
-603.1993994231
 30
0.0
 11
98.4194089624
 21
-603.1993994231
 31
0.0
  0
LINE
  5
48C
330
1F
100
AcDbEntity
  8
0
100
AcDbLine
 10
98.4194089624
 20
-603.1993994231
 30
0.0
 11
98.4194089624
 21
-588.1993994231
 31
0.0
  0
LINE
  5
48D
330
1F
100
AcDbEntity
  8
0
100
AcDbLine
 10
81.9649262905
 20
-578.6993994231
 30
0.0
 11
66.9649262905
 21
-578.6993994231
 31
0.0
  0
LINE
  5
48E
330
1F
100
AcDbEntity
  8
0
100
AcDbLine
 10
66.9649262905
 20
-578.6993994231
 30
0.0
 11
66.9649262905
 21
-593.6993994231
 31
0.0
  0
LINE
  5
48F
330
1F
100
AcDbEntity
  8
0
100
AcDbLine
 10
66.9649262905
 20
-593.6993994231
 30
0.0
 11
81.9649262905
 21
-593.6993994231
 31
0.0
  0
LINE
  5
490
330
1F
100
AcDbEntity
  8
0
100
AcDbLine
 10
81.9649262905
 20
-593.6993994231
 30
0.0
 11
81.9649262905
 21
-578.6993994231
 31
0.0
  0
LINE
  5
491
330
1F
100
AcDbEntity
  8
0
100
AcDbLine
 10
65.5104436186
 20
-569.1993994231
 30
0.0
 11
50.5104436186
 21
-569.1993994231
 31
0.0
  0
LINE
  5
492
330
1F
100
AcDbEntity
  8
0
100
AcDbLine
 10
50.5104436186
 20
-569.1993994231
 30
0.0
 11
50.5104436186
 21
-584.1993994231
 31
0.0
  0
LINE
  5
493
330
1F
100
AcDbEntity
  8
0
100
AcDbLine
 10
50.5104436186
 20
-584.1993994231
 30
0.0
 11
65.5104436186
 21
-584.1993994231
 31
0.0
  0
LINE
  5
494
330
1F
100
AcDbEntity
  8
0
100
AcDbLine
 10
65.5104436186
 20
-584.1993994231
 30
0.0
 11
65.5104436186
 21
-569.1993994231
 31
0.0
  0
LINE
  5
495
330
1F
100
AcDbEntity
  8
0
100
AcDbLine
 10
49.0559609467
 20
-559.6993994231
 30
0.0
 11
34.0559609467
 21
-559.6993994231
 31
0.0
  0
LINE
  5
496
330
1F
100
AcDbEntity
  8
0
100
AcDbLine
 10
34.0559609467
 20
-559.6993994231
 30
0.0
 11
34.0559609467
 21
-574.6993994231
 31
0.0
  0
LINE
  5
497
330
1F
100
AcDbEntity
  8
0
100
AcDbLine
 10
34.0559609467
 20
-574.6993994231
 30
0.0
 11
49.0559609467
 21
-574.6993994231
 31
0.0
  0
LINE
  5
498
330
1F
100
AcDbEntity
  8
0
100
AcDbLine
 10
49.0559609467
 20
-574.6993994231
 30
0.0
 11
49.0559609467
 21
-559.6993994231
 31
0.0
  0
LINE
  5
499
330
1F
100
AcDbEntity
  8
0
100
AcDbLine
 10
32.6014782748
 20
-550.1993994231
 30
0.0
 11
17.6014782748
 21
-550.1993994231
 31
0.0
  0
LINE
  5
49A
330
1F
100
AcDbEntity
  8
0
100
AcDbLine
 10
17.6014782748
 20
-550.1993994231
 30
0.0
 11
17.6014782748
 21
-565.1993994231
 31
0.0
  0
LINE
  5
49B
330
1F
100
AcDbEntity
  8
0
100
AcDbLine
 10
17.6014782748
 20
-565.1993994231
 30
0.0
 11
32.6014782748
 21
-565.1993994231
 31
0.0
  0
LINE
  5
49C
330
1F
100
AcDbEntity
  8
0
100
AcDbLine
 10
32.6014782748
 20
-565.1993994231
 30
0.0
 11
32.6014782748
 21
-550.1993994231
 31
0.0
  0
LINE
  5
49D
330
1F
100
AcDbEntity
  8
0
100
AcDbLine
 10
16.1469956029
 20
-540.6993994231
 30
0.0
 11
1.1469956029
 21
-540.6993994231
 31
0.0
  0
LINE
  5
49E
330
1F
100
AcDbEntity
  8
0
100
AcDbLine
 10
1.1469956029
 20
-540.6993994231
 30
0.0
 11
1.1469956029
 21
-555.6993994231
 31
0.0
  0
LINE
  5
49F
330
1F
100
AcDbEntity
  8
0
100
AcDbLine
 10
1.1469956029
 20
-555.6993994231
 30
0.0
 11
16.1469956029
 21
-555.6993994231
 31
0.0
  0
LINE
  5
4A0
330
1F
100
AcDbEntity
  8
0
100
AcDbLine
 10
16.1469956029
 20
-555.6993994231
 30
0.0
 11
16.1469956029
 21
-540.6993994231
 31
0.0
  0
LINE
  5
4A1
330
1F
100
AcDbEntity
  8
0
100
AcDbLine
 10
-0.307487069
 20
-531.1993994231
 30
0.0
 11
-15.307487069
 21
-531.1993994231
 31
0.0
  0
LINE
  5
4A2
330
1F
100
AcDbEntity
  8
0
100
AcDbLine
 10
-15.307487069
 20
-531.1993994231
 30
0.0
 11
-15.307487069
 21
-546.1993994231
 31
0.0
  0
LINE
  5
4A3
330
1F
100
AcDbEntity
  8
0
100
AcDbLine
 10
-15.307487069
 20
-546.1993994231
 30
0.0
 11
-0.307487069
 21
-546.1993994231
 31
0.0
  0
LINE
  5
4A4
330
1F
100
AcDbEntity
  8
0
100
AcDbLine
 10
-0.307487069
 20
-546.1993994231
 30
0.0
 11
-0.307487069
 21
-531.1993994231
 31
0.0
  0
LINE
  5
4A5
330
1F
100
AcDbEntity
  8
0
100
AcDbLine
 10
-16.7619697409
 20
-521.6993994231
 30
0.0
 11
-31.7619697409
 21
-521.6993994231
 31
0.0
  0
LINE
  5
4A6
330
1F
100
AcDbEntity
  8
0
100
AcDbLine
 10
-31.7619697409
 20
-521.6993994231
 30
0.0
 11
-31.7619697409
 21
-536.6993994231
 31
0.0
  0
LINE
  5
4A7
330
1F
100
AcDbEntity
  8
0
100
AcDbLine
 10
-31.7619697409
 20
-536.6993994231
 30
0.0
 11
-16.7619697409
 21
-536.6993994231
 31
0.0
  0
LINE
  5
4A8
330
1F
100
AcDbEntity
  8
0
100
AcDbLine
 10
-16.7619697409
 20
-536.6993994231
 30
0.0
 11
-16.7619697409
 21
-521.6993994231
 31
0.0
  0
LINE
  5
4A9
330
1F
100
AcDbEntity
  8
0
100
AcDbLine
 10
-33.2164524128
 20
-512.1993994231
 30
0.0
 11
-48.2164524128
 21
-512.1993994231
 31
0.0
  0
LINE
  5
4AA
330
1F
100
AcDbEntity
  8
0
100
AcDbLine
 10
-48.2164524128
 20
-512.1993994231
 30
0.0
 11
-48.2164524128
 21
-527.1993994231
 31
0.0
  0
LINE
  5
4AB
330
1F
100
AcDbEntity
  8
0
100
AcDbLine
 10
-48.2164524128
 20
-527.1993994231
 30
0.0
 11
-33.2164524128
 21
-527.1993994231
 31
0.0
  0
LINE
  5
4AC
330
1F
100
AcDbEntity
  8
0
100
AcDbLine
 10
-33.2164524128
 20
-527.1993994231
 30
0.0
 11
-33.2164524128
 21
-512.1993994231
 31
0.0
  0
LINE
  5
4AD
330
1F
100
AcDbEntity
  8
0
100
AcDbLine
 10
213.6007876657
 20
-635.6993994231
 30
0.0
 11
198.6007876657
 21
-635.6993994231
 31
0.0
  0
LINE
  5
4AE
330
1F
100
AcDbEntity
  8
0
100
AcDbLine
 10
198.6007876657
 20
-635.6993994231
 30
0.0
 11
198.6007876657
 21
-650.6993994231
 31
0.0
  0
LINE
  5
4AF
330
1F
100
AcDbEntity
  8
0
100
AcDbLine
 10
198.6007876657
 20
-650.6993994231
 30
0.0
 11
213.6007876657
 21
-650.6993994231
 31
0.0
  0
LINE
  5
4B0
330
1F
100
AcDbEntity
  8
0
100
AcDbLine
 10
213.6007876657
 20
-650.6993994231
 30
0.0
 11
213.6007876657
 21
-635.6993994231
 31
0.0
  0
LINE
  5
4B1
330
1F
100
AcDbEntity
  8
0
100
AcDbLine
 10
197.1463049938
 20
-626.1993994231
 30
0.0
 11
182.1463049938
 21
-626.1993994231
 31
0.0
  0
LINE
  5
4B2
330
1F
100
AcDbEntity
  8
0
100
AcDbLine
 10
182.1463049938
 20
-626.1993994231
 30
0.0
 11
182.1463049938
 21
-641.1993994231
 31
0.0
  0
LINE
  5
4B3
330
1F
100
AcDbEntity
  8
0
100
AcDbLine
 10
182.1463049938
 20
-641.1993994231
 30
0.0
 11
197.1463049938
 21
-641.1993994231
 31
0.0
  0
LINE
  5
4B4
330
1F
100
AcDbEntity
  8
0
100
AcDbLine
 10
197.1463049938
 20
-641.1993994231
 30
0.0
 11
197.1463049938
 21
-626.1993994231
 31
0.0
  0
LINE
  5
4B5
330
1F
100
AcDbEntity
  8
0
100
AcDbLine
 10
180.6918223219
 20
-616.6993994231
 30
0.0
 11
165.6918223219
 21
-616.6993994231
 31
0.0
  0
LINE
  5
4B6
330
1F
100
AcDbEntity
  8
0
100
AcDbLine
 10
165.6918223219
 20
-616.6993994231
 30
0.0
 11
165.6918223219
 21
-631.6993994231
 31
0.0
  0
LINE
  5
4B7
330
1F
100
AcDbEntity
  8
0
100
AcDbLine
 10
165.6918223219
 20
-631.6993994231
 30
0.0
 11
180.6918223219
 21
-631.6993994231
 31
0.0
  0
LINE
  5
4B8
330
1F
100
AcDbEntity
  8
0
100
AcDbLine
 10
180.6918223219
 20
-631.6993994231
 30
0.0
 11
180.6918223219
 21
-616.6993994231
 31
0.0
  0
LINE
  5
4B9
330
1F
100
AcDbEntity
  8
0
100
AcDbLine
 10
164.23733965
 20
-607.1993994231
 30
0.0
 11
149.23733965
 21
-607.1993994231
 31
0.0
  0
LINE
  5
4BA
330
1F
100
AcDbEntity
  8
0
100
AcDbLine
 10
149.23733965
 20
-607.1993994231
 30
0.0
 11
149.23733965
 21
-622.1993994231
 31
0.0
  0
LINE
  5
4BB
330
1F
100
AcDbEntity
  8
0
100
AcDbLine
 10
149.23733965
 20
-622.1993994231
 30
0.0
 11
164.23733965
 21
-622.1993994231
 31
0.0
  0
LINE
  5
4BC
330
1F
100
AcDbEntity
  8
0
100
AcDbLine
 10
164.23733965
 20
-622.1993994231
 30
0.0
 11
164.23733965
 21
-607.1993994231
 31
0.0
  0
LINE
  5
4BD
330
1F
100
AcDbEntity
  8
0
100
AcDbLine
 10
147.7828569781
 20
-597.6993994231
 30
0.0
 11
132.7828569781
 21
-597.6993994231
 31
0.0
  0
LINE
  5
4BE
330
1F
100
AcDbEntity
  8
0
100
AcDbLine
 10
132.7828569781
 20
-597.6993994231
 30
0.0
 11
132.7828569781
 21
-612.6993994231
 31
0.0
  0
LINE
  5
4BF
330
1F
100
AcDbEntity
  8
0
100
AcDbLine
 10
132.7828569781
 20
-612.6993994231
 30
0.0
 11
147.7828569781
 21
-612.6993994231
 31
0.0
  0
LINE
  5
4C0
330
1F
100
AcDbEntity
  8
0
100
AcDbLine
 10
147.7828569781
 20
-612.6993994231
 30
0.0
 11
147.7828569781
 21
-597.6993994231
 31
0.0
  0
LINE
  5
4C1
330
1F
100
AcDbEntity
  8
0
100
AcDbLine
 10
131.3283743062
 20
-588.1993994231
 30
0.0
 11
116.3283743062
 21
-588.1993994231
 31
0.0
  0
LINE
  5
4C2
330
1F
100
AcDbEntity
  8
0
100
AcDbLine
 10
116.3283743062
 20
-588.1993994231
 30
0.0
 11
116.3283743062
 21
-603.1993994231
 31
0.0
  0
LINE
  5
4C3
330
1F
100
AcDbEntity
  8
0
100
AcDbLine
 10
116.3283743062
 20
-603.1993994231
 30
0.0
 11
131.3283743062
 21
-603.1993994231
 31
0.0
  0
LINE
  5
4C4
330
1F
100
AcDbEntity
  8
0
100
AcDbLine
 10
131.3283743062
 20
-603.1993994231
 30
0.0
 11
131.3283743062
 21
-588.1993994231
 31
0.0
  0
LINE
  5
4C5
330
1F
100
AcDbEntity
  8
0
100
AcDbLine
 10
114.8738916343
 20
-578.6993994231
 30
0.0
 11
99.8738916343
 21
-578.6993994231
 31
0.0
  0
LINE
  5
4C6
330
1F
100
AcDbEntity
  8
0
100
AcDbLine
 10
99.8738916343
 20
-578.6993994231
 30
0.0
 11
99.8738916343
 21
-593.6993994231
 31
0.0
  0
LINE
  5
4C7
330
1F
100
AcDbEntity
  8
0
100
AcDbLine
 10
99.8738916343
 20
-593.6993994231
 30
0.0
 11
114.8738916343
 21
-593.6993994231
 31
0.0
  0
LINE
  5
4C8
330
1F
100
AcDbEntity
  8
0
100
AcDbLine
 10
114.8738916343
 20
-593.6993994231
 30
0.0
 11
114.8738916343
 21
-578.6993994231
 31
0.0
  0
LINE
  5
4C9
330
1F
100
AcDbEntity
  8
0
100
AcDbLine
 10
98.4194089624
 20
-569.1993994231
 30
0.0
 11
83.4194089624
 21
-569.1993994231
 31
0.0
  0
LINE
  5
4CA
330
1F
100
AcDbEntity
  8
0
100
AcDbLine
 10
83.4194089624
 20
-569.1993994231
 30
0.0
 11
83.4194089624
 21
-584.1993994231
 31
0.0
  0
LINE
  5
4CB
330
1F
100
AcDbEntity
  8
0
100
AcDbLine
 10
83.4194089624
 20
-584.1993994231
 30
0.0
 11
98.4194089624
 21
-584.1993994231
 31
0.0
  0
LINE
  5
4CC
330
1F
100
AcDbEntity
  8
0
100
AcDbLine
 10
98.4194089624
 20
-584.1993994231
 30
0.0
 11
98.4194089624
 21
-569.1993994231
 31
0.0
  0
LINE
  5
4CD
330
1F
100
AcDbEntity
  8
0
100
AcDbLine
 10
81.9649262905
 20
-559.6993994231
 30
0.0
 11
66.9649262905
 21
-559.6993994231
 31
0.0
  0
LINE
  5
4CE
330
1F
100
AcDbEntity
  8
0
100
AcDbLine
 10
66.9649262905
 20
-559.6993994231
 30
0.0
 11
66.9649262905
 21
-574.6993994231
 31
0.0
  0
LINE
  5
4CF
330
1F
100
AcDbEntity
  8
0
100
AcDbLine
 10
66.9649262905
 20
-574.6993994231
 30
0.0
 11
81.9649262905
 21
-574.6993994231
 31
0.0
  0
LINE
  5
4D0
330
1F
100
AcDbEntity
  8
0
100
AcDbLine
 10
81.9649262905
 20
-574.6993994231
 30
0.0
 11
81.9649262905
 21
-559.6993994231
 31
0.0
  0
LINE
  5
4D1
330
1F
100
AcDbEntity
  8
0
100
AcDbLine
 10
65.5104436186
 20
-550.1993994231
 30
0.0
 11
50.5104436186
 21
-550.1993994231
 31
0.0
  0
LINE
  5
4D2
330
1F
100
AcDbEntity
  8
0
100
AcDbLine
 10
50.5104436186
 20
-550.1993994231
 30
0.0
 11
50.5104436186
 21
-565.1993994231
 31
0.0
  0
LINE
  5
4D3
330
1F
100
AcDbEntity
  8
0
100
AcDbLine
 10
50.5104436186
 20
-565.1993994231
 30
0.0
 11
65.5104436186
 21
-565.1993994231
 31
0.0
  0
LINE
  5
4D4
330
1F
100
AcDbEntity
  8
0
100
AcDbLine
 10
65.5104436186
 20
-565.1993994231
 30
0.0
 11
65.5104436186
 21
-550.1993994231
 31
0.0
  0
LINE
  5
4D5
330
1F
100
AcDbEntity
  8
0
100
AcDbLine
 10
49.0559609467
 20
-540.6993994231
 30
0.0
 11
34.0559609467
 21
-540.6993994231
 31
0.0
  0
LINE
  5
4D6
330
1F
100
AcDbEntity
  8
0
100
AcDbLine
 10
34.0559609467
 20
-540.6993994231
 30
0.0
 11
34.0559609467
 21
-555.6993994231
 31
0.0
  0
LINE
  5
4D7
330
1F
100
AcDbEntity
  8
0
100
AcDbLine
 10
34.0559609467
 20
-555.6993994231
 30
0.0
 11
49.0559609467
 21
-555.6993994231
 31
0.0
  0
LINE
  5
4D8
330
1F
100
AcDbEntity
  8
0
100
AcDbLine
 10
49.0559609467
 20
-555.6993994231
 30
0.0
 11
49.0559609467
 21
-540.6993994231
 31
0.0
  0
LINE
  5
4D9
330
1F
100
AcDbEntity
  8
0
100
AcDbLine
 10
32.6014782748
 20
-531.1993994231
 30
0.0
 11
17.6014782748
 21
-531.1993994231
 31
0.0
  0
LINE
  5
4DA
330
1F
100
AcDbEntity
  8
0
100
AcDbLine
 10
17.6014782748
 20
-531.1993994231
 30
0.0
 11
17.6014782748
 21
-546.1993994231
 31
0.0
  0
LINE
  5
4DB
330
1F
100
AcDbEntity
  8
0
100
AcDbLine
 10
17.6014782748
 20
-546.1993994231
 30
0.0
 11
32.6014782748
 21
-546.1993994231
 31
0.0
  0
LINE
  5
4DC
330
1F
100
AcDbEntity
  8
0
100
AcDbLine
 10
32.6014782748
 20
-546.1993994231
 30
0.0
 11
32.6014782748
 21
-531.1993994231
 31
0.0
  0
LINE
  5
4DD
330
1F
100
AcDbEntity
  8
0
100
AcDbLine
 10
16.1469956029
 20
-521.6993994231
 30
0.0
 11
1.1469956029
 21
-521.6993994231
 31
0.0
  0
LINE
  5
4DE
330
1F
100
AcDbEntity
  8
0
100
AcDbLine
 10
1.1469956029
 20
-521.6993994231
 30
0.0
 11
1.1469956029
 21
-536.6993994231
 31
0.0
  0
LINE
  5
4DF
330
1F
100
AcDbEntity
  8
0
100
AcDbLine
 10
1.1469956029
 20
-536.6993994231
 30
0.0
 11
16.1469956029
 21
-536.6993994231
 31
0.0
  0
LINE
  5
4E0
330
1F
100
AcDbEntity
  8
0
100
AcDbLine
 10
16.1469956029
 20
-536.6993994231
 30
0.0
 11
16.1469956029
 21
-521.6993994231
 31
0.0
  0
LINE
  5
4E1
330
1F
100
AcDbEntity
  8
0
100
AcDbLine
 10
-0.307487069
 20
-512.1993994231
 30
0.0
 11
-15.307487069
 21
-512.1993994231
 31
0.0
  0
LINE
  5
4E2
330
1F
100
AcDbEntity
  8
0
100
AcDbLine
 10
-15.307487069
 20
-512.1993994231
 30
0.0
 11
-15.307487069
 21
-527.1993994231
 31
0.0
  0
LINE
  5
4E3
330
1F
100
AcDbEntity
  8
0
100
AcDbLine
 10
-15.307487069
 20
-527.1993994231
 30
0.0
 11
-0.307487069
 21
-527.1993994231
 31
0.0
  0
LINE
  5
4E4
330
1F
100
AcDbEntity
  8
0
100
AcDbLine
 10
-0.307487069
 20
-527.1993994231
 30
0.0
 11
-0.307487069
 21
-512.1993994231
 31
0.0
  0
LINE
  5
4E5
330
1F
100
AcDbEntity
  8
0
100
AcDbLine
 10
-16.7619697409
 20
-502.6993994231
 30
0.0
 11
-31.7619697409
 21
-502.6993994231
 31
0.0
  0
LINE
  5
4E6
330
1F
100
AcDbEntity
  8
0
100
AcDbLine
 10
-31.7619697409
 20
-502.6993994231
 30
0.0
 11
-31.7619697409
 21
-517.6993994231
 31
0.0
  0
LINE
  5
4E7
330
1F
100
AcDbEntity
  8
0
100
AcDbLine
 10
-31.7619697409
 20
-517.6993994231
 30
0.0
 11
-16.7619697409
 21
-517.6993994231
 31
0.0
  0
LINE
  5
4E8
330
1F
100
AcDbEntity
  8
0
100
AcDbLine
 10
-16.7619697409
 20
-517.6993994231
 30
0.0
 11
-16.7619697409
 21
-502.6993994231
 31
0.0
  0
LINE
  5
4E9
330
1F
100
AcDbEntity
  8
0
100
AcDbLine
 10
230.0552703376
 20
-626.1993994231
 30
0.0
 11
215.0552703376
 21
-626.1993994231
 31
0.0
  0
LINE
  5
4EA
330
1F
100
AcDbEntity
  8
0
100
AcDbLine
 10
215.0552703376
 20
-626.1993994231
 30
0.0
 11
215.0552703376
 21
-641.1993994231
 31
0.0
  0
LINE
  5
4EB
330
1F
100
AcDbEntity
  8
0
100
AcDbLine
 10
215.0552703376
 20
-641.1993994231
 30
0.0
 11
230.0552703376
 21
-641.1993994231
 31
0.0
  0
LINE
  5
4EC
330
1F
100
AcDbEntity
  8
0
100
AcDbLine
 10
230.0552703376
 20
-641.1993994231
 30
0.0
 11
230.0552703376
 21
-626.1993994231
 31
0.0
  0
LINE
  5
4ED
330
1F
100
AcDbEntity
  8
0
100
AcDbLine
 10
213.6007876657
 20
-616.6993994231
 30
0.0
 11
198.6007876657
 21
-616.6993994231
 31
0.0
  0
LINE
  5
4EE
330
1F
100
AcDbEntity
  8
0
100
AcDbLine
 10
198.6007876657
 20
-616.6993994231
 30
0.0
 11
198.6007876657
 21
-631.6993994231
 31
0.0
  0
LINE
  5
4EF
330
1F
100
AcDbEntity
  8
0
100
AcDbLine
 10
198.6007876657
 20
-631.6993994231
 30
0.0
 11
213.6007876657
 21
-631.6993994231
 31
0.0
  0
LINE
  5
4F0
330
1F
100
AcDbEntity
  8
0
100
AcDbLine
 10
213.6007876657
 20
-631.6993994231
 30
0.0
 11
213.6007876657
 21
-616.6993994231
 31
0.0
  0
LINE
  5
4F1
330
1F
100
AcDbEntity
  8
0
100
AcDbLine
 10
197.1463049938
 20
-607.1993994231
 30
0.0
 11
182.1463049938
 21
-607.1993994231
 31
0.0
  0
LINE
  5
4F2
330
1F
100
AcDbEntity
  8
0
100
AcDbLine
 10
182.1463049938
 20
-607.1993994231
 30
0.0
 11
182.1463049938
 21
-622.1993994231
 31
0.0
  0
LINE
  5
4F3
330
1F
100
AcDbEntity
  8
0
100
AcDbLine
 10
182.1463049938
 20
-622.1993994231
 30
0.0
 11
197.1463049938
 21
-622.1993994231
 31
0.0
  0
LINE
  5
4F4
330
1F
100
AcDbEntity
  8
0
100
AcDbLine
 10
197.1463049938
 20
-622.1993994231
 30
0.0
 11
197.1463049938
 21
-607.1993994231
 31
0.0
  0
LINE
  5
4F5
330
1F
100
AcDbEntity
  8
0
100
AcDbLine
 10
180.6918223219
 20
-597.6993994231
 30
0.0
 11
165.6918223219
 21
-597.6993994231
 31
0.0
  0
LINE
  5
4F6
330
1F
100
AcDbEntity
  8
0
100
AcDbLine
 10
165.6918223219
 20
-597.6993994231
 30
0.0
 11
165.6918223219
 21
-612.6993994231
 31
0.0
  0
LINE
  5
4F7
330
1F
100
AcDbEntity
  8
0
100
AcDbLine
 10
165.6918223219
 20
-612.6993994231
 30
0.0
 11
180.6918223219
 21
-612.6993994231
 31
0.0
  0
LINE
  5
4F8
330
1F
100
AcDbEntity
  8
0
100
AcDbLine
 10
180.6918223219
 20
-612.6993994231
 30
0.0
 11
180.6918223219
 21
-597.6993994231
 31
0.0
  0
LINE
  5
4F9
330
1F
100
AcDbEntity
  8
0
100
AcDbLine
 10
164.23733965
 20
-588.1993994231
 30
0.0
 11
149.23733965
 21
-588.1993994231
 31
0.0
  0
LINE
  5
4FA
330
1F
100
AcDbEntity
  8
0
100
AcDbLine
 10
149.23733965
 20
-588.1993994231
 30
0.0
 11
149.23733965
 21
-603.1993994231
 31
0.0
  0
LINE
  5
4FB
330
1F
100
AcDbEntity
  8
0
100
AcDbLine
 10
149.23733965
 20
-603.1993994231
 30
0.0
 11
164.23733965
 21
-603.1993994231
 31
0.0
  0
LINE
  5
4FC
330
1F
100
AcDbEntity
  8
0
100
AcDbLine
 10
164.23733965
 20
-603.1993994231
 30
0.0
 11
164.23733965
 21
-588.1993994231
 31
0.0
  0
LINE
  5
4FD
330
1F
100
AcDbEntity
  8
0
100
AcDbLine
 10
147.7828569781
 20
-578.6993994231
 30
0.0
 11
132.7828569781
 21
-578.6993994231
 31
0.0
  0
LINE
  5
4FE
330
1F
100
AcDbEntity
  8
0
100
AcDbLine
 10
132.7828569781
 20
-578.6993994231
 30
0.0
 11
132.7828569781
 21
-593.6993994231
 31
0.0
  0
LINE
  5
4FF
330
1F
100
AcDbEntity
  8
0
100
AcDbLine
 10
132.7828569781
 20
-593.6993994231
 30
0.0
 11
147.7828569781
 21
-593.6993994231
 31
0.0
  0
LINE
  5
500
330
1F
100
AcDbEntity
  8
0
100
AcDbLine
 10
147.7828569781
 20
-593.6993994231
 30
0.0
 11
147.7828569781
 21
-578.6993994231
 31
0.0
  0
LINE
  5
501
330
1F
100
AcDbEntity
  8
0
100
AcDbLine
 10
131.3283743062
 20
-569.1993994231
 30
0.0
 11
116.3283743062
 21
-569.1993994231
 31
0.0
  0
LINE
  5
502
330
1F
100
AcDbEntity
  8
0
100
AcDbLine
 10
116.3283743062
 20
-569.1993994231
 30
0.0
 11
116.3283743062
 21
-584.1993994231
 31
0.0
  0
LINE
  5
503
330
1F
100
AcDbEntity
  8
0
100
AcDbLine
 10
116.3283743062
 20
-584.1993994231
 30
0.0
 11
131.3283743062
 21
-584.1993994231
 31
0.0
  0
LINE
  5
504
330
1F
100
AcDbEntity
  8
0
100
AcDbLine
 10
131.3283743062
 20
-584.1993994231
 30
0.0
 11
131.3283743062
 21
-569.1993994231
 31
0.0
  0
LINE
  5
505
330
1F
100
AcDbEntity
  8
0
100
AcDbLine
 10
114.8738916343
 20
-559.6993994231
 30
0.0
 11
99.8738916343
 21
-559.6993994231
 31
0.0
  0
LINE
  5
506
330
1F
100
AcDbEntity
  8
0
100
AcDbLine
 10
99.8738916343
 20
-559.6993994231
 30
0.0
 11
99.8738916343
 21
-574.6993994231
 31
0.0
  0
LINE
  5
507
330
1F
100
AcDbEntity
  8
0
100
AcDbLine
 10
99.8738916343
 20
-574.6993994231
 30
0.0
 11
114.8738916343
 21
-574.6993994231
 31
0.0
  0
LINE
  5
508
330
1F
100
AcDbEntity
  8
0
100
AcDbLine
 10
114.8738916343
 20
-574.6993994231
 30
0.0
 11
114.8738916343
 21
-559.6993994231
 31
0.0
  0
LINE
  5
509
330
1F
100
AcDbEntity
  8
0
100
AcDbLine
 10
98.4194089624
 20
-550.1993994231
 30
0.0
 11
83.4194089624
 21
-550.1993994231
 31
0.0
  0
LINE
  5
50A
330
1F
100
AcDbEntity
  8
0
100
AcDbLine
 10
83.4194089624
 20
-550.1993994231
 30
0.0
 11
83.4194089624
 21
-565.1993994231
 31
0.0
  0
LINE
  5
50B
330
1F
100
AcDbEntity
  8
0
100
AcDbLine
 10
83.4194089624
 20
-565.1993994231
 30
0.0
 11
98.4194089624
 21
-565.1993994231
 31
0.0
  0
LINE
  5
50C
330
1F
100
AcDbEntity
  8
0
100
AcDbLine
 10
98.4194089624
 20
-565.1993994231
 30
0.0
 11
98.4194089624
 21
-550.1993994231
 31
0.0
  0
LINE
  5
50D
330
1F
100
AcDbEntity
  8
0
100
AcDbLine
 10
81.9649262905
 20
-540.6993994231
 30
0.0
 11
66.9649262905
 21
-540.6993994231
 31
0.0
  0
LINE
  5
50E
330
1F
100
AcDbEntity
  8
0
100
AcDbLine
 10
66.9649262905
 20
-540.6993994231
 30
0.0
 11
66.9649262905
 21
-555.6993994231
 31
0.0
  0
LINE
  5
50F
330
1F
100
AcDbEntity
  8
0
100
AcDbLine
 10
66.9649262905
 20
-555.6993994231
 30
0.0
 11
81.9649262905
 21
-555.6993994231
 31
0.0
  0
LINE
  5
510
330
1F
100
AcDbEntity
  8
0
100
AcDbLine
 10
81.9649262905
 20
-555.6993994231
 30
0.0
 11
81.9649262905
 21
-540.6993994231
 31
0.0
  0
LINE
  5
511
330
1F
100
AcDbEntity
  8
0
100
AcDbLine
 10
65.5104436186
 20
-531.1993994231
 30
0.0
 11
50.5104436186
 21
-531.1993994231
 31
0.0
  0
LINE
  5
512
330
1F
100
AcDbEntity
  8
0
100
AcDbLine
 10
50.5104436186
 20
-531.1993994231
 30
0.0
 11
50.5104436186
 21
-546.1993994231
 31
0.0
  0
LINE
  5
513
330
1F
100
AcDbEntity
  8
0
100
AcDbLine
 10
50.5104436186
 20
-546.1993994231
 30
0.0
 11
65.5104436186
 21
-546.1993994231
 31
0.0
  0
LINE
  5
514
330
1F
100
AcDbEntity
  8
0
100
AcDbLine
 10
65.5104436186
 20
-546.1993994231
 30
0.0
 11
65.5104436186
 21
-531.1993994231
 31
0.0
  0
LINE
  5
515
330
1F
100
AcDbEntity
  8
0
100
AcDbLine
 10
49.0559609467
 20
-521.6993994231
 30
0.0
 11
34.0559609467
 21
-521.6993994231
 31
0.0
  0
LINE
  5
516
330
1F
100
AcDbEntity
  8
0
100
AcDbLine
 10
34.0559609467
 20
-521.6993994231
 30
0.0
 11
34.0559609467
 21
-536.6993994231
 31
0.0
  0
LINE
  5
517
330
1F
100
AcDbEntity
  8
0
100
AcDbLine
 10
34.0559609467
 20
-536.6993994231
 30
0.0
 11
49.0559609467
 21
-536.6993994231
 31
0.0
  0
LINE
  5
518
330
1F
100
AcDbEntity
  8
0
100
AcDbLine
 10
49.0559609467
 20
-536.6993994231
 30
0.0
 11
49.0559609467
 21
-521.6993994231
 31
0.0
  0
LINE
  5
519
330
1F
100
AcDbEntity
  8
0
100
AcDbLine
 10
32.6014782748
 20
-512.1993994231
 30
0.0
 11
17.6014782748
 21
-512.1993994231
 31
0.0
  0
LINE
  5
51A
330
1F
100
AcDbEntity
  8
0
100
AcDbLine
 10
17.6014782748
 20
-512.1993994231
 30
0.0
 11
17.6014782748
 21
-527.1993994231
 31
0.0
  0
LINE
  5
51B
330
1F
100
AcDbEntity
  8
0
100
AcDbLine
 10
17.6014782748
 20
-527.1993994231
 30
0.0
 11
32.6014782748
 21
-527.1993994231
 31
0.0
  0
LINE
  5
51C
330
1F
100
AcDbEntity
  8
0
100
AcDbLine
 10
32.6014782748
 20
-527.1993994231
 30
0.0
 11
32.6014782748
 21
-512.1993994231
 31
0.0
  0
LINE
  5
51D
330
1F
100
AcDbEntity
  8
0
100
AcDbLine
 10
16.1469956029
 20
-502.6993994231
 30
0.0
 11
1.1469956029
 21
-502.6993994231
 31
0.0
  0
LINE
  5
51E
330
1F
100
AcDbEntity
  8
0
100
AcDbLine
 10
1.1469956029
 20
-502.6993994231
 30
0.0
 11
1.1469956029
 21
-517.6993994231
 31
0.0
  0
LINE
  5
51F
330
1F
100
AcDbEntity
  8
0
100
AcDbLine
 10
1.1469956029
 20
-517.6993994231
 30
0.0
 11
16.1469956029
 21
-517.6993994231
 31
0.0
  0
LINE
  5
520
330
1F
100
AcDbEntity
  8
0
100
AcDbLine
 10
16.1469956029
 20
-517.6993994231
 30
0.0
 11
16.1469956029
 21
-502.6993994231
 31
0.0
  0
LINE
  5
521
330
1F
100
AcDbEntity
  8
0
100
AcDbLine
 10
-0.307487069
 20
-493.1993994231
 30
0.0
 11
-15.307487069
 21
-493.1993994231
 31
0.0
  0
LINE
  5
522
330
1F
100
AcDbEntity
  8
0
100
AcDbLine
 10
-15.307487069
 20
-493.1993994231
 30
0.0
 11
-15.307487069
 21
-508.1993994231
 31
0.0
  0
LINE
  5
523
330
1F
100
AcDbEntity
  8
0
100
AcDbLine
 10
-15.307487069
 20
-508.1993994231
 30
0.0
 11
-0.307487069
 21
-508.1993994231
 31
0.0
  0
LINE
  5
524
330
1F
100
AcDbEntity
  8
0
100
AcDbLine
 10
-0.307487069
 20
-508.1993994231
 30
0.0
 11
-0.307487069
 21
-493.1993994231
 31
0.0
  0
LINE
  5
525
330
1F
100
AcDbEntity
  8
0
100
AcDbLine
 10
-16.7619697409
 20
-483.6993994231
 30
0.0
 11
-31.7619697409
 21
-483.6993994231
 31
0.0
  0
LINE
  5
526
330
1F
100
AcDbEntity
  8
0
100
AcDbLine
 10
-31.7619697409
 20
-483.6993994231
 30
0.0
 11
-31.7619697409
 21
-498.6993994231
 31
0.0
  0
LINE
  5
527
330
1F
100
AcDbEntity
  8
0
100
AcDbLine
 10
-31.7619697409
 20
-498.6993994231
 30
0.0
 11
-16.7619697409
 21
-498.6993994231
 31
0.0
  0
LINE
  5
528
330
1F
100
AcDbEntity
  8
0
100
AcDbLine
 10
-16.7619697409
 20
-498.6993994231
 30
0.0
 11
-16.7619697409
 21
-483.6993994231
 31
0.0
  0
LINE
  5
529
330
1F
100
AcDbEntity
  8
0
100
AcDbLine
 10
230.0552703376
 20
-607.1993994231
 30
0.0
 11
215.0552703376
 21
-607.1993994231
 31
0.0
  0
LINE
  5
52A
330
1F
100
AcDbEntity
  8
0
100
AcDbLine
 10
215.0552703376
 20
-607.1993994231
 30
0.0
 11
215.0552703376
 21
-622.1993994231
 31
0.0
  0
LINE
  5
52B
330
1F
100
AcDbEntity
  8
0
100
AcDbLine
 10
215.0552703376
 20
-622.1993994231
 30
0.0
 11
230.0552703376
 21
-622.1993994231
 31
0.0
  0
LINE
  5
52C
330
1F
100
AcDbEntity
  8
0
100
AcDbLine
 10
230.0552703376
 20
-622.1993994231
 30
0.0
 11
230.0552703376
 21
-607.1993994231
 31
0.0
  0
LINE
  5
52D
330
1F
100
AcDbEntity
  8
0
100
AcDbLine
 10
213.6007876657
 20
-597.6993994231
 30
0.0
 11
198.6007876657
 21
-597.6993994231
 31
0.0
  0
LINE
  5
52E
330
1F
100
AcDbEntity
  8
0
100
AcDbLine
 10
198.6007876657
 20
-597.6993994231
 30
0.0
 11
198.6007876657
 21
-612.6993994231
 31
0.0
  0
LINE
  5
52F
330
1F
100
AcDbEntity
  8
0
100
AcDbLine
 10
198.6007876657
 20
-612.6993994231
 30
0.0
 11
213.6007876657
 21
-612.6993994231
 31
0.0
  0
LINE
  5
530
330
1F
100
AcDbEntity
  8
0
100
AcDbLine
 10
213.6007876657
 20
-612.6993994231
 30
0.0
 11
213.6007876657
 21
-597.6993994231
 31
0.0
  0
LINE
  5
531
330
1F
100
AcDbEntity
  8
0
100
AcDbLine
 10
197.1463049938
 20
-588.1993994231
 30
0.0
 11
182.1463049938
 21
-588.1993994231
 31
0.0
  0
LINE
  5
532
330
1F
100
AcDbEntity
  8
0
100
AcDbLine
 10
182.1463049938
 20
-588.1993994231
 30
0.0
 11
182.1463049938
 21
-603.1993994231
 31
0.0
  0
LINE
  5
533
330
1F
100
AcDbEntity
  8
0
100
AcDbLine
 10
182.1463049938
 20
-603.1993994231
 30
0.0
 11
197.1463049938
 21
-603.1993994231
 31
0.0
  0
LINE
  5
534
330
1F
100
AcDbEntity
  8
0
100
AcDbLine
 10
197.1463049938
 20
-603.1993994231
 30
0.0
 11
197.1463049938
 21
-588.1993994231
 31
0.0
  0
LINE
  5
535
330
1F
100
AcDbEntity
  8
0
100
AcDbLine
 10
180.6918223219
 20
-578.6993994231
 30
0.0
 11
165.6918223219
 21
-578.6993994231
 31
0.0
  0
LINE
  5
536
330
1F
100
AcDbEntity
  8
0
100
AcDbLine
 10
165.6918223219
 20
-578.6993994231
 30
0.0
 11
165.6918223219
 21
-593.6993994231
 31
0.0
  0
LINE
  5
537
330
1F
100
AcDbEntity
  8
0
100
AcDbLine
 10
165.6918223219
 20
-593.6993994231
 30
0.0
 11
180.6918223219
 21
-593.6993994231
 31
0.0
  0
LINE
  5
538
330
1F
100
AcDbEntity
  8
0
100
AcDbLine
 10
180.6918223219
 20
-593.6993994231
 30
0.0
 11
180.6918223219
 21
-578.6993994231
 31
0.0
  0
LINE
  5
539
330
1F
100
AcDbEntity
  8
0
100
AcDbLine
 10
164.23733965
 20
-569.1993994231
 30
0.0
 11
149.23733965
 21
-569.1993994231
 31
0.0
  0
LINE
  5
53A
330
1F
100
AcDbEntity
  8
0
100
AcDbLine
 10
149.23733965
 20
-569.1993994231
 30
0.0
 11
149.23733965
 21
-584.1993994231
 31
0.0
  0
LINE
  5
53B
330
1F
100
AcDbEntity
  8
0
100
AcDbLine
 10
149.23733965
 20
-584.1993994231
 30
0.0
 11
164.23733965
 21
-584.1993994231
 31
0.0
  0
LINE
  5
53C
330
1F
100
AcDbEntity
  8
0
100
AcDbLine
 10
164.23733965
 20
-584.1993994231
 30
0.0
 11
164.23733965
 21
-569.1993994231
 31
0.0
  0
LINE
  5
53D
330
1F
100
AcDbEntity
  8
0
100
AcDbLine
 10
147.7828569781
 20
-559.6993994231
 30
0.0
 11
132.7828569781
 21
-559.6993994231
 31
0.0
  0
LINE
  5
53E
330
1F
100
AcDbEntity
  8
0
100
AcDbLine
 10
132.7828569781
 20
-559.6993994231
 30
0.0
 11
132.7828569781
 21
-574.6993994231
 31
0.0
  0
LINE
  5
53F
330
1F
100
AcDbEntity
  8
0
100
AcDbLine
 10
132.7828569781
 20
-574.6993994231
 30
0.0
 11
147.7828569781
 21
-574.6993994231
 31
0.0
  0
LINE
  5
540
330
1F
100
AcDbEntity
  8
0
100
AcDbLine
 10
147.7828569781
 20
-574.6993994231
 30
0.0
 11
147.7828569781
 21
-559.6993994231
 31
0.0
  0
LINE
  5
541
330
1F
100
AcDbEntity
  8
0
100
AcDbLine
 10
131.3283743062
 20
-550.1993994231
 30
0.0
 11
116.3283743062
 21
-550.1993994231
 31
0.0
  0
LINE
  5
542
330
1F
100
AcDbEntity
  8
0
100
AcDbLine
 10
116.3283743062
 20
-550.1993994231
 30
0.0
 11
116.3283743062
 21
-565.1993994231
 31
0.0
  0
LINE
  5
543
330
1F
100
AcDbEntity
  8
0
100
AcDbLine
 10
116.3283743062
 20
-565.1993994231
 30
0.0
 11
131.3283743062
 21
-565.1993994231
 31
0.0
  0
LINE
  5
544
330
1F
100
AcDbEntity
  8
0
100
AcDbLine
 10
131.3283743062
 20
-565.1993994231
 30
0.0
 11
131.3283743062
 21
-550.1993994231
 31
0.0
  0
LINE
  5
545
330
1F
100
AcDbEntity
  8
0
100
AcDbLine
 10
114.8738916343
 20
-540.6993994231
 30
0.0
 11
99.8738916343
 21
-540.6993994231
 31
0.0
  0
LINE
  5
546
330
1F
100
AcDbEntity
  8
0
100
AcDbLine
 10
99.8738916343
 20
-540.6993994231
 30
0.0
 11
99.8738916343
 21
-555.6993994231
 31
0.0
  0
LINE
  5
547
330
1F
100
AcDbEntity
  8
0
100
AcDbLine
 10
99.8738916343
 20
-555.6993994231
 30
0.0
 11
114.8738916343
 21
-555.6993994231
 31
0.0
  0
LINE
  5
548
330
1F
100
AcDbEntity
  8
0
100
AcDbLine
 10
114.8738916343
 20
-555.6993994231
 30
0.0
 11
114.8738916343
 21
-540.6993994231
 31
0.0
  0
LINE
  5
549
330
1F
100
AcDbEntity
  8
0
100
AcDbLine
 10
98.4194089624
 20
-531.1993994231
 30
0.0
 11
83.4194089624
 21
-531.1993994231
 31
0.0
  0
LINE
  5
54A
330
1F
100
AcDbEntity
  8
0
100
AcDbLine
 10
83.4194089624
 20
-531.1993994231
 30
0.0
 11
83.4194089624
 21
-546.1993994231
 31
0.0
  0
LINE
  5
54B
330
1F
100
AcDbEntity
  8
0
100
AcDbLine
 10
83.4194089624
 20
-546.1993994231
 30
0.0
 11
98.4194089624
 21
-546.1993994231
 31
0.0
  0
LINE
  5
54C
330
1F
100
AcDbEntity
  8
0
100
AcDbLine
 10
98.4194089624
 20
-546.1993994231
 30
0.0
 11
98.4194089624
 21
-531.1993994231
 31
0.0
  0
LINE
  5
54D
330
1F
100
AcDbEntity
  8
0
100
AcDbLine
 10
81.9649262905
 20
-521.6993994231
 30
0.0
 11
66.9649262905
 21
-521.6993994231
 31
0.0
  0
LINE
  5
54E
330
1F
100
AcDbEntity
  8
0
100
AcDbLine
 10
66.9649262905
 20
-521.6993994231
 30
0.0
 11
66.9649262905
 21
-536.6993994231
 31
0.0
  0
LINE
  5
54F
330
1F
100
AcDbEntity
  8
0
100
AcDbLine
 10
66.9649262905
 20
-536.6993994231
 30
0.0
 11
81.9649262905
 21
-536.6993994231
 31
0.0
  0
LINE
  5
550
330
1F
100
AcDbEntity
  8
0
100
AcDbLine
 10
81.9649262905
 20
-536.6993994231
 30
0.0
 11
81.9649262905
 21
-521.6993994231
 31
0.0
  0
LINE
  5
551
330
1F
100
AcDbEntity
  8
0
100
AcDbLine
 10
65.5104436186
 20
-512.1993994231
 30
0.0
 11
50.5104436186
 21
-512.1993994231
 31
0.0
  0
LINE
  5
552
330
1F
100
AcDbEntity
  8
0
100
AcDbLine
 10
50.5104436186
 20
-512.1993994231
 30
0.0
 11
50.5104436186
 21
-527.1993994231
 31
0.0
  0
LINE
  5
553
330
1F
100
AcDbEntity
  8
0
100
AcDbLine
 10
50.5104436186
 20
-527.1993994231
 30
0.0
 11
65.5104436186
 21
-527.1993994231
 31
0.0
  0
LINE
  5
554
330
1F
100
AcDbEntity
  8
0
100
AcDbLine
 10
65.5104436186
 20
-527.1993994231
 30
0.0
 11
65.5104436186
 21
-512.1993994231
 31
0.0
  0
LINE
  5
555
330
1F
100
AcDbEntity
  8
0
100
AcDbLine
 10
49.0559609467
 20
-502.6993994231
 30
0.0
 11
34.0559609467
 21
-502.6993994231
 31
0.0
  0
LINE
  5
556
330
1F
100
AcDbEntity
  8
0
100
AcDbLine
 10
34.0559609467
 20
-502.6993994231
 30
0.0
 11
34.0559609467
 21
-517.6993994231
 31
0.0
  0
LINE
  5
557
330
1F
100
AcDbEntity
  8
0
100
AcDbLine
 10
34.0559609467
 20
-517.6993994231
 30
0.0
 11
49.0559609467
 21
-517.6993994231
 31
0.0
  0
LINE
  5
558
330
1F
100
AcDbEntity
  8
0
100
AcDbLine
 10
49.0559609467
 20
-517.6993994231
 30
0.0
 11
49.0559609467
 21
-502.6993994231
 31
0.0
  0
LINE
  5
559
330
1F
100
AcDbEntity
  8
0
100
AcDbLine
 10
32.6014782748
 20
-493.1993994231
 30
0.0
 11
17.6014782748
 21
-493.1993994231
 31
0.0
  0
LINE
  5
55A
330
1F
100
AcDbEntity
  8
0
100
AcDbLine
 10
17.6014782748
 20
-493.1993994231
 30
0.0
 11
17.6014782748
 21
-508.1993994231
 31
0.0
  0
LINE
  5
55B
330
1F
100
AcDbEntity
  8
0
100
AcDbLine
 10
17.6014782748
 20
-508.1993994231
 30
0.0
 11
32.6014782748
 21
-508.1993994231
 31
0.0
  0
LINE
  5
55C
330
1F
100
AcDbEntity
  8
0
100
AcDbLine
 10
32.6014782748
 20
-508.1993994231
 30
0.0
 11
32.6014782748
 21
-493.1993994231
 31
0.0
  0
LINE
  5
55D
330
1F
100
AcDbEntity
  8
0
100
AcDbLine
 10
16.1469956029
 20
-483.6993994231
 30
0.0
 11
1.1469956029
 21
-483.6993994231
 31
0.0
  0
LINE
  5
55E
330
1F
100
AcDbEntity
  8
0
100
AcDbLine
 10
1.1469956029
 20
-483.6993994231
 30
0.0
 11
1.1469956029
 21
-498.6993994231
 31
0.0
  0
LINE
  5
55F
330
1F
100
AcDbEntity
  8
0
100
AcDbLine
 10
1.1469956029
 20
-498.6993994231
 30
0.0
 11
16.1469956029
 21
-498.6993994231
 31
0.0
  0
LINE
  5
560
330
1F
100
AcDbEntity
  8
0
100
AcDbLine
 10
16.1469956029
 20
-498.6993994231
 30
0.0
 11
16.1469956029
 21
-483.6993994231
 31
0.0
  0
LINE
  5
561
330
1F
100
AcDbEntity
  8
0
100
AcDbLine
 10
-0.307487069
 20
-474.1993994231
 30
0.0
 11
-15.307487069
 21
-474.1993994231
 31
0.0
  0
LINE
  5
562
330
1F
100
AcDbEntity
  8
0
100
AcDbLine
 10
-15.307487069
 20
-474.1993994231
 30
0.0
 11
-15.307487069
 21
-489.1993994231
 31
0.0
  0
LINE
  5
563
330
1F
100
AcDbEntity
  8
0
100
AcDbLine
 10
-15.307487069
 20
-489.1993994231
 30
0.0
 11
-0.307487069
 21
-489.1993994231
 31
0.0
  0
LINE
  5
564
330
1F
100
AcDbEntity
  8
0
100
AcDbLine
 10
-0.307487069
 20
-489.1993994231
 30
0.0
 11
-0.307487069
 21
-474.1993994231
 31
0.0
  0
LINE
  5
565
330
1F
100
AcDbEntity
  8
0
100
AcDbLine
 10
230.0552703376
 20
-588.1993994231
 30
0.0
 11
215.0552703376
 21
-588.1993994231
 31
0.0
  0
LINE
  5
566
330
1F
100
AcDbEntity
  8
0
100
AcDbLine
 10
215.0552703376
 20
-588.1993994231
 30
0.0
 11
215.0552703376
 21
-603.1993994231
 31
0.0
  0
LINE
  5
567
330
1F
100
AcDbEntity
  8
0
100
AcDbLine
 10
215.0552703376
 20
-603.1993994231
 30
0.0
 11
230.0552703376
 21
-603.1993994231
 31
0.0
  0
LINE
  5
568
330
1F
100
AcDbEntity
  8
0
100
AcDbLine
 10
230.0552703376
 20
-603.1993994231
 30
0.0
 11
230.0552703376
 21
-588.1993994231
 31
0.0
  0
LINE
  5
569
330
1F
100
AcDbEntity
  8
0
100
AcDbLine
 10
213.6007876657
 20
-578.6993994231
 30
0.0
 11
198.6007876657
 21
-578.6993994231
 31
0.0
  0
LINE
  5
56A
330
1F
100
AcDbEntity
  8
0
100
AcDbLine
 10
198.6007876657
 20
-578.6993994231
 30
0.0
 11
198.6007876657
 21
-593.6993994231
 31
0.0
  0
LINE
  5
56B
330
1F
100
AcDbEntity
  8
0
100
AcDbLine
 10
198.6007876657
 20
-593.6993994231
 30
0.0
 11
213.6007876657
 21
-593.6993994231
 31
0.0
  0
LINE
  5
56C
330
1F
100
AcDbEntity
  8
0
100
AcDbLine
 10
213.6007876657
 20
-593.6993994231
 30
0.0
 11
213.6007876657
 21
-578.6993994231
 31
0.0
  0
LINE
  5
56D
330
1F
100
AcDbEntity
  8
0
100
AcDbLine
 10
197.1463049938
 20
-569.1993994231
 30
0.0
 11
182.1463049938
 21
-569.1993994231
 31
0.0
  0
LINE
  5
56E
330
1F
100
AcDbEntity
  8
0
100
AcDbLine
 10
182.1463049938
 20
-569.1993994231
 30
0.0
 11
182.1463049938
 21
-584.1993994231
 31
0.0
  0
LINE
  5
56F
330
1F
100
AcDbEntity
  8
0
100
AcDbLine
 10
182.1463049938
 20
-584.1993994231
 30
0.0
 11
197.1463049938
 21
-584.1993994231
 31
0.0
  0
LINE
  5
570
330
1F
100
AcDbEntity
  8
0
100
AcDbLine
 10
197.1463049938
 20
-584.1993994231
 30
0.0
 11
197.1463049938
 21
-569.1993994231
 31
0.0
  0
LINE
  5
571
330
1F
100
AcDbEntity
  8
0
100
AcDbLine
 10
180.6918223219
 20
-559.6993994231
 30
0.0
 11
165.6918223219
 21
-559.6993994231
 31
0.0
  0
LINE
  5
572
330
1F
100
AcDbEntity
  8
0
100
AcDbLine
 10
165.6918223219
 20
-559.6993994231
 30
0.0
 11
165.6918223219
 21
-574.6993994231
 31
0.0
  0
LINE
  5
573
330
1F
100
AcDbEntity
  8
0
100
AcDbLine
 10
165.6918223219
 20
-574.6993994231
 30
0.0
 11
180.6918223219
 21
-574.6993994231
 31
0.0
  0
LINE
  5
574
330
1F
100
AcDbEntity
  8
0
100
AcDbLine
 10
180.6918223219
 20
-574.6993994231
 30
0.0
 11
180.6918223219
 21
-559.6993994231
 31
0.0
  0
LINE
  5
575
330
1F
100
AcDbEntity
  8
0
100
AcDbLine
 10
164.23733965
 20
-550.1993994231
 30
0.0
 11
149.23733965
 21
-550.1993994231
 31
0.0
  0
LINE
  5
576
330
1F
100
AcDbEntity
  8
0
100
AcDbLine
 10
149.23733965
 20
-550.1993994231
 30
0.0
 11
149.23733965
 21
-565.1993994231
 31
0.0
  0
LINE
  5
577
330
1F
100
AcDbEntity
  8
0
100
AcDbLine
 10
149.23733965
 20
-565.1993994231
 30
0.0
 11
164.23733965
 21
-565.1993994231
 31
0.0
  0
LINE
  5
578
330
1F
100
AcDbEntity
  8
0
100
AcDbLine
 10
164.23733965
 20
-565.1993994231
 30
0.0
 11
164.23733965
 21
-550.1993994231
 31
0.0
  0
LINE
  5
579
330
1F
100
AcDbEntity
  8
0
100
AcDbLine
 10
147.7828569781
 20
-540.6993994231
 30
0.0
 11
132.7828569781
 21
-540.6993994231
 31
0.0
  0
LINE
  5
57A
330
1F
100
AcDbEntity
  8
0
100
AcDbLine
 10
132.7828569781
 20
-540.6993994231
 30
0.0
 11
132.7828569781
 21
-555.6993994231
 31
0.0
  0
LINE
  5
57B
330
1F
100
AcDbEntity
  8
0
100
AcDbLine
 10
132.7828569781
 20
-555.6993994231
 30
0.0
 11
147.7828569781
 21
-555.6993994231
 31
0.0
  0
LINE
  5
57C
330
1F
100
AcDbEntity
  8
0
100
AcDbLine
 10
147.7828569781
 20
-555.6993994231
 30
0.0
 11
147.7828569781
 21
-540.6993994231
 31
0.0
  0
LINE
  5
57D
330
1F
100
AcDbEntity
  8
0
100
AcDbLine
 10
131.3283743062
 20
-531.1993994231
 30
0.0
 11
116.3283743062
 21
-531.1993994231
 31
0.0
  0
LINE
  5
57E
330
1F
100
AcDbEntity
  8
0
100
AcDbLine
 10
116.3283743062
 20
-531.1993994231
 30
0.0
 11
116.3283743062
 21
-546.1993994231
 31
0.0
  0
LINE
  5
57F
330
1F
100
AcDbEntity
  8
0
100
AcDbLine
 10
116.3283743062
 20
-546.1993994231
 30
0.0
 11
131.3283743062
 21
-546.1993994231
 31
0.0
  0
LINE
  5
580
330
1F
100
AcDbEntity
  8
0
100
AcDbLine
 10
131.3283743062
 20
-546.1993994231
 30
0.0
 11
131.3283743062
 21
-531.1993994231
 31
0.0
  0
LINE
  5
581
330
1F
100
AcDbEntity
  8
0
100
AcDbLine
 10
114.8738916343
 20
-521.6993994231
 30
0.0
 11
99.8738916343
 21
-521.6993994231
 31
0.0
  0
LINE
  5
582
330
1F
100
AcDbEntity
  8
0
100
AcDbLine
 10
99.8738916343
 20
-521.6993994231
 30
0.0
 11
99.8738916343
 21
-536.6993994231
 31
0.0
  0
LINE
  5
583
330
1F
100
AcDbEntity
  8
0
100
AcDbLine
 10
99.8738916343
 20
-536.6993994231
 30
0.0
 11
114.8738916343
 21
-536.6993994231
 31
0.0
  0
LINE
  5
584
330
1F
100
AcDbEntity
  8
0
100
AcDbLine
 10
114.8738916343
 20
-536.6993994231
 30
0.0
 11
114.8738916343
 21
-521.6993994231
 31
0.0
  0
LINE
  5
585
330
1F
100
AcDbEntity
  8
0
100
AcDbLine
 10
98.4194089624
 20
-512.1993994231
 30
0.0
 11
83.4194089624
 21
-512.1993994231
 31
0.0
  0
LINE
  5
586
330
1F
100
AcDbEntity
  8
0
100
AcDbLine
 10
83.4194089624
 20
-512.1993994231
 30
0.0
 11
83.4194089624
 21
-527.1993994231
 31
0.0
  0
LINE
  5
587
330
1F
100
AcDbEntity
  8
0
100
AcDbLine
 10
83.4194089624
 20
-527.1993994231
 30
0.0
 11
98.4194089624
 21
-527.1993994231
 31
0.0
  0
LINE
  5
588
330
1F
100
AcDbEntity
  8
0
100
AcDbLine
 10
98.4194089624
 20
-527.1993994231
 30
0.0
 11
98.4194089624
 21
-512.1993994231
 31
0.0
  0
LINE
  5
589
330
1F
100
AcDbEntity
  8
0
100
AcDbLine
 10
81.9649262905
 20
-502.6993994231
 30
0.0
 11
66.9649262905
 21
-502.6993994231
 31
0.0
  0
LINE
  5
58A
330
1F
100
AcDbEntity
  8
0
100
AcDbLine
 10
66.9649262905
 20
-502.6993994231
 30
0.0
 11
66.9649262905
 21
-517.6993994231
 31
0.0
  0
LINE
  5
58B
330
1F
100
AcDbEntity
  8
0
100
AcDbLine
 10
66.9649262905
 20
-517.6993994231
 30
0.0
 11
81.9649262905
 21
-517.6993994231
 31
0.0
  0
LINE
  5
58C
330
1F
100
AcDbEntity
  8
0
100
AcDbLine
 10
81.9649262905
 20
-517.6993994231
 30
0.0
 11
81.9649262905
 21
-502.6993994231
 31
0.0
  0
LINE
  5
58D
330
1F
100
AcDbEntity
  8
0
100
AcDbLine
 10
65.5104436186
 20
-493.1993994231
 30
0.0
 11
50.5104436186
 21
-493.1993994231
 31
0.0
  0
LINE
  5
58E
330
1F
100
AcDbEntity
  8
0
100
AcDbLine
 10
50.5104436186
 20
-493.1993994231
 30
0.0
 11
50.5104436186
 21
-508.1993994231
 31
0.0
  0
LINE
  5
58F
330
1F
100
AcDbEntity
  8
0
100
AcDbLine
 10
50.5104436186
 20
-508.1993994231
 30
0.0
 11
65.5104436186
 21
-508.1993994231
 31
0.0
  0
LINE
  5
590
330
1F
100
AcDbEntity
  8
0
100
AcDbLine
 10
65.5104436186
 20
-508.1993994231
 30
0.0
 11
65.5104436186
 21
-493.1993994231
 31
0.0
  0
LINE
  5
591
330
1F
100
AcDbEntity
  8
0
100
AcDbLine
 10
49.0559609467
 20
-483.6993994231
 30
0.0
 11
34.0559609467
 21
-483.6993994231
 31
0.0
  0
LINE
  5
592
330
1F
100
AcDbEntity
  8
0
100
AcDbLine
 10
34.0559609467
 20
-483.6993994231
 30
0.0
 11
34.0559609467
 21
-498.6993994231
 31
0.0
  0
LINE
  5
593
330
1F
100
AcDbEntity
  8
0
100
AcDbLine
 10
34.0559609467
 20
-498.6993994231
 30
0.0
 11
49.0559609467
 21
-498.6993994231
 31
0.0
  0
LINE
  5
594
330
1F
100
AcDbEntity
  8
0
100
AcDbLine
 10
49.0559609467
 20
-498.6993994231
 30
0.0
 11
49.0559609467
 21
-483.6993994231
 31
0.0
  0
LINE
  5
595
330
1F
100
AcDbEntity
  8
0
100
AcDbLine
 10
32.6014782748
 20
-474.1993994231
 30
0.0
 11
17.6014782748
 21
-474.1993994231
 31
0.0
  0
LINE
  5
596
330
1F
100
AcDbEntity
  8
0
100
AcDbLine
 10
17.6014782748
 20
-474.1993994231
 30
0.0
 11
17.6014782748
 21
-489.1993994231
 31
0.0
  0
LINE
  5
597
330
1F
100
AcDbEntity
  8
0
100
AcDbLine
 10
17.6014782748
 20
-489.1993994231
 30
0.0
 11
32.6014782748
 21
-489.1993994231
 31
0.0
  0
LINE
  5
598
330
1F
100
AcDbEntity
  8
0
100
AcDbLine
 10
32.6014782748
 20
-489.1993994231
 30
0.0
 11
32.6014782748
 21
-474.1993994231
 31
0.0
  0
LINE
  5
599
330
1F
100
AcDbEntity
  8
0
100
AcDbLine
 10
16.1469956029
 20
-464.6993994231
 30
0.0
 11
1.1469956029
 21
-464.6993994231
 31
0.0
  0
LINE
  5
59A
330
1F
100
AcDbEntity
  8
0
100
AcDbLine
 10
1.1469956029
 20
-464.6993994231
 30
0.0
 11
1.1469956029
 21
-479.6993994231
 31
0.0
  0
LINE
  5
59B
330
1F
100
AcDbEntity
  8
0
100
AcDbLine
 10
1.1469956029
 20
-479.6993994231
 30
0.0
 11
16.1469956029
 21
-479.6993994231
 31
0.0
  0
LINE
  5
59C
330
1F
100
AcDbEntity
  8
0
100
AcDbLine
 10
16.1469956029
 20
-479.6993994231
 30
0.0
 11
16.1469956029
 21
-464.6993994231
 31
0.0
  0
LINE
  5
59D
330
1F
100
AcDbEntity
  8
0
100
AcDbLine
 10
230.0552703376
 20
-569.1993994231
 30
0.0
 11
215.0552703376
 21
-569.1993994231
 31
0.0
  0
LINE
  5
59E
330
1F
100
AcDbEntity
  8
0
100
AcDbLine
 10
215.0552703376
 20
-569.1993994231
 30
0.0
 11
215.0552703376
 21
-584.1993994231
 31
0.0
  0
LINE
  5
59F
330
1F
100
AcDbEntity
  8
0
100
AcDbLine
 10
215.0552703376
 20
-584.1993994231
 30
0.0
 11
230.0552703376
 21
-584.1993994231
 31
0.0
  0
LINE
  5
5A0
330
1F
100
AcDbEntity
  8
0
100
AcDbLine
 10
230.0552703376
 20
-584.1993994231
 30
0.0
 11
230.0552703376
 21
-569.1993994231
 31
0.0
  0
LINE
  5
5A1
330
1F
100
AcDbEntity
  8
0
100
AcDbLine
 10
213.6007876657
 20
-559.6993994231
 30
0.0
 11
198.6007876657
 21
-559.6993994231
 31
0.0
  0
LINE
  5
5A2
330
1F
100
AcDbEntity
  8
0
100
AcDbLine
 10
198.6007876657
 20
-559.6993994231
 30
0.0
 11
198.6007876657
 21
-574.6993994231
 31
0.0
  0
LINE
  5
5A3
330
1F
100
AcDbEntity
  8
0
100
AcDbLine
 10
198.6007876657
 20
-574.6993994231
 30
0.0
 11
213.6007876657
 21
-574.6993994231
 31
0.0
  0
LINE
  5
5A4
330
1F
100
AcDbEntity
  8
0
100
AcDbLine
 10
213.6007876657
 20
-574.6993994231
 30
0.0
 11
213.6007876657
 21
-559.6993994231
 31
0.0
  0
LINE
  5
5A5
330
1F
100
AcDbEntity
  8
0
100
AcDbLine
 10
197.1463049938
 20
-550.1993994231
 30
0.0
 11
182.1463049938
 21
-550.1993994231
 31
0.0
  0
LINE
  5
5A6
330
1F
100
AcDbEntity
  8
0
100
AcDbLine
 10
182.1463049938
 20
-550.1993994231
 30
0.0
 11
182.1463049938
 21
-565.1993994231
 31
0.0
  0
LINE
  5
5A7
330
1F
100
AcDbEntity
  8
0
100
AcDbLine
 10
182.1463049938
 20
-565.1993994231
 30
0.0
 11
197.1463049938
 21
-565.1993994231
 31
0.0
  0
LINE
  5
5A8
330
1F
100
AcDbEntity
  8
0
100
AcDbLine
 10
197.1463049938
 20
-565.1993994231
 30
0.0
 11
197.1463049938
 21
-550.1993994231
 31
0.0
  0
LINE
  5
5A9
330
1F
100
AcDbEntity
  8
0
100
AcDbLine
 10
180.6918223219
 20
-540.6993994231
 30
0.0
 11
165.6918223219
 21
-540.6993994231
 31
0.0
  0
LINE
  5
5AA
330
1F
100
AcDbEntity
  8
0
100
AcDbLine
 10
165.6918223219
 20
-540.6993994231
 30
0.0
 11
165.6918223219
 21
-555.6993994231
 31
0.0
  0
LINE
  5
5AB
330
1F
100
AcDbEntity
  8
0
100
AcDbLine
 10
165.6918223219
 20
-555.6993994231
 30
0.0
 11
180.6918223219
 21
-555.6993994231
 31
0.0
  0
LINE
  5
5AC
330
1F
100
AcDbEntity
  8
0
100
AcDbLine
 10
180.6918223219
 20
-555.6993994231
 30
0.0
 11
180.6918223219
 21
-540.6993994231
 31
0.0
  0
LINE
  5
5AD
330
1F
100
AcDbEntity
  8
0
100
AcDbLine
 10
164.23733965
 20
-531.1993994231
 30
0.0
 11
149.23733965
 21
-531.1993994231
 31
0.0
  0
LINE
  5
5AE
330
1F
100
AcDbEntity
  8
0
100
AcDbLine
 10
149.23733965
 20
-531.1993994231
 30
0.0
 11
149.23733965
 21
-546.1993994231
 31
0.0
  0
LINE
  5
5AF
330
1F
100
AcDbEntity
  8
0
100
AcDbLine
 10
149.23733965
 20
-546.1993994231
 30
0.0
 11
164.23733965
 21
-546.1993994231
 31
0.0
  0
LINE
  5
5B0
330
1F
100
AcDbEntity
  8
0
100
AcDbLine
 10
164.23733965
 20
-546.1993994231
 30
0.0
 11
164.23733965
 21
-531.1993994231
 31
0.0
  0
LINE
  5
5B1
330
1F
100
AcDbEntity
  8
0
100
AcDbLine
 10
147.7828569781
 20
-521.6993994231
 30
0.0
 11
132.7828569781
 21
-521.6993994231
 31
0.0
  0
LINE
  5
5B2
330
1F
100
AcDbEntity
  8
0
100
AcDbLine
 10
132.7828569781
 20
-521.6993994231
 30
0.0
 11
132.7828569781
 21
-536.6993994231
 31
0.0
  0
LINE
  5
5B3
330
1F
100
AcDbEntity
  8
0
100
AcDbLine
 10
132.7828569781
 20
-536.6993994231
 30
0.0
 11
147.7828569781
 21
-536.6993994231
 31
0.0
  0
LINE
  5
5B4
330
1F
100
AcDbEntity
  8
0
100
AcDbLine
 10
147.7828569781
 20
-536.6993994231
 30
0.0
 11
147.7828569781
 21
-521.6993994231
 31
0.0
  0
LINE
  5
5B5
330
1F
100
AcDbEntity
  8
0
100
AcDbLine
 10
131.3283743062
 20
-512.1993994231
 30
0.0
 11
116.3283743062
 21
-512.1993994231
 31
0.0
  0
LINE
  5
5B6
330
1F
100
AcDbEntity
  8
0
100
AcDbLine
 10
116.3283743062
 20
-512.1993994231
 30
0.0
 11
116.3283743062
 21
-527.1993994231
 31
0.0
  0
LINE
  5
5B7
330
1F
100
AcDbEntity
  8
0
100
AcDbLine
 10
116.3283743062
 20
-527.1993994231
 30
0.0
 11
131.3283743062
 21
-527.1993994231
 31
0.0
  0
LINE
  5
5B8
330
1F
100
AcDbEntity
  8
0
100
AcDbLine
 10
131.3283743062
 20
-527.1993994231
 30
0.0
 11
131.3283743062
 21
-512.1993994231
 31
0.0
  0
LINE
  5
5B9
330
1F
100
AcDbEntity
  8
0
100
AcDbLine
 10
114.8738916343
 20
-502.6993994231
 30
0.0
 11
99.8738916343
 21
-502.6993994231
 31
0.0
  0
LINE
  5
5BA
330
1F
100
AcDbEntity
  8
0
100
AcDbLine
 10
99.8738916343
 20
-502.6993994231
 30
0.0
 11
99.8738916343
 21
-517.6993994231
 31
0.0
  0
LINE
  5
5BB
330
1F
100
AcDbEntity
  8
0
100
AcDbLine
 10
99.8738916343
 20
-517.6993994231
 30
0.0
 11
114.8738916343
 21
-517.6993994231
 31
0.0
  0
LINE
  5
5BC
330
1F
100
AcDbEntity
  8
0
100
AcDbLine
 10
114.8738916343
 20
-517.6993994231
 30
0.0
 11
114.8738916343
 21
-502.6993994231
 31
0.0
  0
LINE
  5
5BD
330
1F
100
AcDbEntity
  8
0
100
AcDbLine
 10
98.4194089624
 20
-493.1993994231
 30
0.0
 11
83.4194089624
 21
-493.1993994231
 31
0.0
  0
LINE
  5
5BE
330
1F
100
AcDbEntity
  8
0
100
AcDbLine
 10
83.4194089624
 20
-493.1993994231
 30
0.0
 11
83.4194089624
 21
-508.1993994231
 31
0.0
  0
LINE
  5
5BF
330
1F
100
AcDbEntity
  8
0
100
AcDbLine
 10
83.4194089624
 20
-508.1993994231
 30
0.0
 11
98.4194089624
 21
-508.1993994231
 31
0.0
  0
LINE
  5
5C0
330
1F
100
AcDbEntity
  8
0
100
AcDbLine
 10
98.4194089624
 20
-508.1993994231
 30
0.0
 11
98.4194089624
 21
-493.1993994231
 31
0.0
  0
LINE
  5
5C1
330
1F
100
AcDbEntity
  8
0
100
AcDbLine
 10
81.9649262905
 20
-483.6993994231
 30
0.0
 11
66.9649262905
 21
-483.6993994231
 31
0.0
  0
LINE
  5
5C2
330
1F
100
AcDbEntity
  8
0
100
AcDbLine
 10
66.9649262905
 20
-483.6993994231
 30
0.0
 11
66.9649262905
 21
-498.6993994231
 31
0.0
  0
LINE
  5
5C3
330
1F
100
AcDbEntity
  8
0
100
AcDbLine
 10
66.9649262905
 20
-498.6993994231
 30
0.0
 11
81.9649262905
 21
-498.6993994231
 31
0.0
  0
LINE
  5
5C4
330
1F
100
AcDbEntity
  8
0
100
AcDbLine
 10
81.9649262905
 20
-498.6993994231
 30
0.0
 11
81.9649262905
 21
-483.6993994231
 31
0.0
  0
LINE
  5
5C5
330
1F
100
AcDbEntity
  8
0
100
AcDbLine
 10
65.5104436186
 20
-474.1993994231
 30
0.0
 11
50.5104436186
 21
-474.1993994231
 31
0.0
  0
LINE
  5
5C6
330
1F
100
AcDbEntity
  8
0
100
AcDbLine
 10
50.5104436186
 20
-474.1993994231
 30
0.0
 11
50.5104436186
 21
-489.1993994231
 31
0.0
  0
LINE
  5
5C7
330
1F
100
AcDbEntity
  8
0
100
AcDbLine
 10
50.5104436186
 20
-489.1993994231
 30
0.0
 11
65.5104436186
 21
-489.1993994231
 31
0.0
  0
LINE
  5
5C8
330
1F
100
AcDbEntity
  8
0
100
AcDbLine
 10
65.5104436186
 20
-489.1993994231
 30
0.0
 11
65.5104436186
 21
-474.1993994231
 31
0.0
  0
LINE
  5
5C9
330
1F
100
AcDbEntity
  8
0
100
AcDbLine
 10
49.0559609467
 20
-464.6993994231
 30
0.0
 11
34.0559609467
 21
-464.6993994231
 31
0.0
  0
LINE
  5
5CA
330
1F
100
AcDbEntity
  8
0
100
AcDbLine
 10
34.0559609467
 20
-464.6993994231
 30
0.0
 11
34.0559609467
 21
-479.6993994231
 31
0.0
  0
LINE
  5
5CB
330
1F
100
AcDbEntity
  8
0
100
AcDbLine
 10
34.0559609467
 20
-479.6993994231
 30
0.0
 11
49.0559609467
 21
-479.6993994231
 31
0.0
  0
LINE
  5
5CC
330
1F
100
AcDbEntity
  8
0
100
AcDbLine
 10
49.0559609467
 20
-479.6993994231
 30
0.0
 11
49.0559609467
 21
-464.6993994231
 31
0.0
  0
LINE
  5
5CD
330
1F
100
AcDbEntity
  8
0
100
AcDbLine
 10
32.6014782748
 20
-455.1993994231
 30
0.0
 11
17.6014782748
 21
-455.1993994231
 31
0.0
  0
LINE
  5
5CE
330
1F
100
AcDbEntity
  8
0
100
AcDbLine
 10
17.6014782748
 20
-455.1993994231
 30
0.0
 11
17.6014782748
 21
-470.1993994231
 31
0.0
  0
LINE
  5
5CF
330
1F
100
AcDbEntity
  8
0
100
AcDbLine
 10
17.6014782748
 20
-470.1993994231
 30
0.0
 11
32.6014782748
 21
-470.1993994231
 31
0.0
  0
LINE
  5
5D0
330
1F
100
AcDbEntity
  8
0
100
AcDbLine
 10
32.6014782748
 20
-470.1993994231
 30
0.0
 11
32.6014782748
 21
-455.1993994231
 31
0.0
  0
LINE
  5
5D1
330
1F
100
AcDbEntity
  8
0
100
AcDbLine
 10
213.6007876657
 20
-540.6993994231
 30
0.0
 11
198.6007876657
 21
-540.6993994231
 31
0.0
  0
LINE
  5
5D2
330
1F
100
AcDbEntity
  8
0
100
AcDbLine
 10
198.6007876657
 20
-540.6993994231
 30
0.0
 11
198.6007876657
 21
-555.6993994231
 31
0.0
  0
LINE
  5
5D3
330
1F
100
AcDbEntity
  8
0
100
AcDbLine
 10
198.6007876657
 20
-555.6993994231
 30
0.0
 11
213.6007876657
 21
-555.6993994231
 31
0.0
  0
LINE
  5
5D4
330
1F
100
AcDbEntity
  8
0
100
AcDbLine
 10
213.6007876657
 20
-555.6993994231
 30
0.0
 11
213.6007876657
 21
-540.6993994231
 31
0.0
  0
LINE
  5
5D5
330
1F
100
AcDbEntity
  8
0
100
AcDbLine
 10
197.1463049938
 20
-531.1993994231
 30
0.0
 11
182.1463049938
 21
-531.1993994231
 31
0.0
  0
LINE
  5
5D6
330
1F
100
AcDbEntity
  8
0
100
AcDbLine
 10
182.1463049938
 20
-531.1993994231
 30
0.0
 11
182.1463049938
 21
-546.1993994231
 31
0.0
  0
LINE
  5
5D7
330
1F
100
AcDbEntity
  8
0
100
AcDbLine
 10
182.1463049938
 20
-546.1993994231
 30
0.0
 11
197.1463049938
 21
-546.1993994231
 31
0.0
  0
LINE
  5
5D8
330
1F
100
AcDbEntity
  8
0
100
AcDbLine
 10
197.1463049938
 20
-546.1993994231
 30
0.0
 11
197.1463049938
 21
-531.1993994231
 31
0.0
  0
LINE
  5
5D9
330
1F
100
AcDbEntity
  8
0
100
AcDbLine
 10
180.6918223219
 20
-521.6993994231
 30
0.0
 11
165.6918223219
 21
-521.6993994231
 31
0.0
  0
LINE
  5
5DA
330
1F
100
AcDbEntity
  8
0
100
AcDbLine
 10
165.6918223219
 20
-521.6993994231
 30
0.0
 11
165.6918223219
 21
-536.6993994231
 31
0.0
  0
LINE
  5
5DB
330
1F
100
AcDbEntity
  8
0
100
AcDbLine
 10
165.6918223219
 20
-536.6993994231
 30
0.0
 11
180.6918223219
 21
-536.6993994231
 31
0.0
  0
LINE
  5
5DC
330
1F
100
AcDbEntity
  8
0
100
AcDbLine
 10
180.6918223219
 20
-536.6993994231
 30
0.0
 11
180.6918223219
 21
-521.6993994231
 31
0.0
  0
LINE
  5
5DD
330
1F
100
AcDbEntity
  8
0
100
AcDbLine
 10
164.23733965
 20
-512.1993994231
 30
0.0
 11
149.23733965
 21
-512.1993994231
 31
0.0
  0
LINE
  5
5DE
330
1F
100
AcDbEntity
  8
0
100
AcDbLine
 10
149.23733965
 20
-512.1993994231
 30
0.0
 11
149.23733965
 21
-527.1993994231
 31
0.0
  0
LINE
  5
5DF
330
1F
100
AcDbEntity
  8
0
100
AcDbLine
 10
149.23733965
 20
-527.1993994231
 30
0.0
 11
164.23733965
 21
-527.1993994231
 31
0.0
  0
LINE
  5
5E0
330
1F
100
AcDbEntity
  8
0
100
AcDbLine
 10
164.23733965
 20
-527.1993994231
 30
0.0
 11
164.23733965
 21
-512.1993994231
 31
0.0
  0
LINE
  5
5E1
330
1F
100
AcDbEntity
  8
0
100
AcDbLine
 10
147.7828569781
 20
-502.6993994231
 30
0.0
 11
132.7828569781
 21
-502.6993994231
 31
0.0
  0
LINE
  5
5E2
330
1F
100
AcDbEntity
  8
0
100
AcDbLine
 10
132.7828569781
 20
-502.6993994231
 30
0.0
 11
132.7828569781
 21
-517.6993994231
 31
0.0
  0
LINE
  5
5E3
330
1F
100
AcDbEntity
  8
0
100
AcDbLine
 10
132.7828569781
 20
-517.6993994231
 30
0.0
 11
147.7828569781
 21
-517.6993994231
 31
0.0
  0
LINE
  5
5E4
330
1F
100
AcDbEntity
  8
0
100
AcDbLine
 10
147.7828569781
 20
-517.6993994231
 30
0.0
 11
147.7828569781
 21
-502.6993994231
 31
0.0
  0
LINE
  5
5E5
330
1F
100
AcDbEntity
  8
0
100
AcDbLine
 10
131.3283743062
 20
-493.1993994231
 30
0.0
 11
116.3283743062
 21
-493.1993994231
 31
0.0
  0
LINE
  5
5E6
330
1F
100
AcDbEntity
  8
0
100
AcDbLine
 10
116.3283743062
 20
-493.1993994231
 30
0.0
 11
116.3283743062
 21
-508.1993994231
 31
0.0
  0
LINE
  5
5E7
330
1F
100
AcDbEntity
  8
0
100
AcDbLine
 10
116.3283743062
 20
-508.1993994231
 30
0.0
 11
131.3283743062
 21
-508.1993994231
 31
0.0
  0
LINE
  5
5E8
330
1F
100
AcDbEntity
  8
0
100
AcDbLine
 10
131.3283743062
 20
-508.1993994231
 30
0.0
 11
131.3283743062
 21
-493.1993994231
 31
0.0
  0
LINE
  5
5E9
330
1F
100
AcDbEntity
  8
0
100
AcDbLine
 10
114.8738916343
 20
-483.6993994231
 30
0.0
 11
99.8738916343
 21
-483.6993994231
 31
0.0
  0
LINE
  5
5EA
330
1F
100
AcDbEntity
  8
0
100
AcDbLine
 10
99.8738916343
 20
-483.6993994231
 30
0.0
 11
99.8738916343
 21
-498.6993994231
 31
0.0
  0
LINE
  5
5EB
330
1F
100
AcDbEntity
  8
0
100
AcDbLine
 10
99.8738916343
 20
-498.6993994231
 30
0.0
 11
114.8738916343
 21
-498.6993994231
 31
0.0
  0
LINE
  5
5EC
330
1F
100
AcDbEntity
  8
0
100
AcDbLine
 10
114.8738916343
 20
-498.6993994231
 30
0.0
 11
114.8738916343
 21
-483.6993994231
 31
0.0
  0
LINE
  5
5ED
330
1F
100
AcDbEntity
  8
0
100
AcDbLine
 10
98.4194089624
 20
-474.1993994231
 30
0.0
 11
83.4194089624
 21
-474.1993994231
 31
0.0
  0
LINE
  5
5EE
330
1F
100
AcDbEntity
  8
0
100
AcDbLine
 10
83.4194089624
 20
-474.1993994231
 30
0.0
 11
83.4194089624
 21
-489.1993994231
 31
0.0
  0
LINE
  5
5EF
330
1F
100
AcDbEntity
  8
0
100
AcDbLine
 10
83.4194089624
 20
-489.1993994231
 30
0.0
 11
98.4194089624
 21
-489.1993994231
 31
0.0
  0
LINE
  5
5F0
330
1F
100
AcDbEntity
  8
0
100
AcDbLine
 10
98.4194089624
 20
-489.1993994231
 30
0.0
 11
98.4194089624
 21
-474.1993994231
 31
0.0
  0
LINE
  5
5F1
330
1F
100
AcDbEntity
  8
0
100
AcDbLine
 10
81.9649262905
 20
-464.6993994231
 30
0.0
 11
66.9649262905
 21
-464.6993994231
 31
0.0
  0
LINE
  5
5F2
330
1F
100
AcDbEntity
  8
0
100
AcDbLine
 10
66.9649262905
 20
-464.6993994231
 30
0.0
 11
66.9649262905
 21
-479.6993994231
 31
0.0
  0
LINE
  5
5F3
330
1F
100
AcDbEntity
  8
0
100
AcDbLine
 10
66.9649262905
 20
-479.6993994231
 30
0.0
 11
81.9649262905
 21
-479.6993994231
 31
0.0
  0
LINE
  5
5F4
330
1F
100
AcDbEntity
  8
0
100
AcDbLine
 10
81.9649262905
 20
-479.6993994231
 30
0.0
 11
81.9649262905
 21
-464.6993994231
 31
0.0
  0
LINE
  5
5F5
330
1F
100
AcDbEntity
  8
0
100
AcDbLine
 10
65.5104436186
 20
-455.1993994231
 30
0.0
 11
50.5104436186
 21
-455.1993994231
 31
0.0
  0
LINE
  5
5F6
330
1F
100
AcDbEntity
  8
0
100
AcDbLine
 10
50.5104436186
 20
-455.1993994231
 30
0.0
 11
50.5104436186
 21
-470.1993994231
 31
0.0
  0
LINE
  5
5F7
330
1F
100
AcDbEntity
  8
0
100
AcDbLine
 10
50.5104436186
 20
-470.1993994231
 30
0.0
 11
65.5104436186
 21
-470.1993994231
 31
0.0
  0
LINE
  5
5F8
330
1F
100
AcDbEntity
  8
0
100
AcDbLine
 10
213.6007876657
 20
-521.6993994231
 30
0.0
 11
198.6007876657
 21
-521.6993994231
 31
0.0
  0
LINE
  5
5F9
330
1F
100
AcDbEntity
  8
0
100
AcDbLine
 10
198.6007876657
 20
-521.6993994231
 30
0.0
 11
198.6007876657
 21
-536.6993994231
 31
0.0
  0
LINE
  5
5FA
330
1F
100
AcDbEntity
  8
0
100
AcDbLine
 10
198.6007876657
 20
-536.6993994231
 30
0.0
 11
213.6007876657
 21
-536.6993994231
 31
0.0
  0
LINE
  5
5FB
330
1F
100
AcDbEntity
  8
0
100
AcDbLine
 10
213.6007876657
 20
-536.6993994231
 30
0.0
 11
213.6007876657
 21
-521.6993994231
 31
0.0
  0
LINE
  5
5FC
330
1F
100
AcDbEntity
  8
0
100
AcDbLine
 10
197.1463049938
 20
-512.1993994231
 30
0.0
 11
182.1463049938
 21
-512.1993994231
 31
0.0
  0
LINE
  5
5FD
330
1F
100
AcDbEntity
  8
0
100
AcDbLine
 10
182.1463049938
 20
-512.1993994231
 30
0.0
 11
182.1463049938
 21
-527.1993994231
 31
0.0
  0
LINE
  5
5FE
330
1F
100
AcDbEntity
  8
0
100
AcDbLine
 10
182.1463049938
 20
-527.1993994231
 30
0.0
 11
197.1463049938
 21
-527.1993994231
 31
0.0
  0
LINE
  5
5FF
330
1F
100
AcDbEntity
  8
0
100
AcDbLine
 10
197.1463049938
 20
-527.1993994231
 30
0.0
 11
197.1463049938
 21
-512.1993994231
 31
0.0
  0
LINE
  5
600
330
1F
100
AcDbEntity
  8
0
100
AcDbLine
 10
180.6918223219
 20
-502.6993994231
 30
0.0
 11
165.6918223219
 21
-502.6993994231
 31
0.0
  0
LINE
  5
601
330
1F
100
AcDbEntity
  8
0
100
AcDbLine
 10
165.6918223219
 20
-502.6993994231
 30
0.0
 11
165.6918223219
 21
-517.6993994231
 31
0.0
  0
LINE
  5
602
330
1F
100
AcDbEntity
  8
0
100
AcDbLine
 10
165.6918223219
 20
-517.6993994231
 30
0.0
 11
180.6918223219
 21
-517.6993994231
 31
0.0
  0
LINE
  5
603
330
1F
100
AcDbEntity
  8
0
100
AcDbLine
 10
180.6918223219
 20
-517.6993994231
 30
0.0
 11
180.6918223219
 21
-502.6993994231
 31
0.0
  0
LINE
  5
604
330
1F
100
AcDbEntity
  8
0
100
AcDbLine
 10
164.23733965
 20
-493.1993994231
 30
0.0
 11
149.23733965
 21
-493.1993994231
 31
0.0
  0
LINE
  5
605
330
1F
100
AcDbEntity
  8
0
100
AcDbLine
 10
149.23733965
 20
-493.1993994231
 30
0.0
 11
149.23733965
 21
-508.1993994231
 31
0.0
  0
LINE
  5
606
330
1F
100
AcDbEntity
  8
0
100
AcDbLine
 10
149.23733965
 20
-508.1993994231
 30
0.0
 11
164.23733965
 21
-508.1993994231
 31
0.0
  0
LINE
  5
607
330
1F
100
AcDbEntity
  8
0
100
AcDbLine
 10
164.23733965
 20
-508.1993994231
 30
0.0
 11
164.23733965
 21
-493.1993994231
 31
0.0
  0
LINE
  5
608
330
1F
100
AcDbEntity
  8
0
100
AcDbLine
 10
147.7828569781
 20
-483.6993994231
 30
0.0
 11
132.7828569781
 21
-483.6993994231
 31
0.0
  0
LINE
  5
609
330
1F
100
AcDbEntity
  8
0
100
AcDbLine
 10
132.7828569781
 20
-483.6993994231
 30
0.0
 11
132.7828569781
 21
-498.6993994231
 31
0.0
  0
LINE
  5
60A
330
1F
100
AcDbEntity
  8
0
100
AcDbLine
 10
132.7828569781
 20
-498.6993994231
 30
0.0
 11
147.7828569781
 21
-498.6993994231
 31
0.0
  0
LINE
  5
60B
330
1F
100
AcDbEntity
  8
0
100
AcDbLine
 10
147.7828569781
 20
-498.6993994231
 30
0.0
 11
147.7828569781
 21
-483.6993994231
 31
0.0
  0
LINE
  5
60C
330
1F
100
AcDbEntity
  8
0
100
AcDbLine
 10
131.3283743062
 20
-474.1993994231
 30
0.0
 11
116.3283743062
 21
-474.1993994231
 31
0.0
  0
LINE
  5
60D
330
1F
100
AcDbEntity
  8
0
100
AcDbLine
 10
116.3283743062
 20
-474.1993994231
 30
0.0
 11
116.3283743062
 21
-489.1993994231
 31
0.0
  0
LINE
  5
60E
330
1F
100
AcDbEntity
  8
0
100
AcDbLine
 10
116.3283743062
 20
-489.1993994231
 30
0.0
 11
131.3283743062
 21
-489.1993994231
 31
0.0
  0
LINE
  5
60F
330
1F
100
AcDbEntity
  8
0
100
AcDbLine
 10
131.3283743062
 20
-489.1993994231
 30
0.0
 11
131.3283743062
 21
-474.1993994231
 31
0.0
  0
LINE
  5
610
330
1F
100
AcDbEntity
  8
0
100
AcDbLine
 10
114.8738916343
 20
-464.6993994231
 30
0.0
 11
99.8738916343
 21
-464.6993994231
 31
0.0
  0
LINE
  5
611
330
1F
100
AcDbEntity
  8
0
100
AcDbLine
 10
99.8738916343
 20
-464.6993994231
 30
0.0
 11
99.8738916343
 21
-479.6993994231
 31
0.0
  0
LINE
  5
612
330
1F
100
AcDbEntity
  8
0
100
AcDbLine
 10
99.8738916343
 20
-479.6993994231
 30
0.0
 11
114.8738916343
 21
-479.6993994231
 31
0.0
  0
LINE
  5
613
330
1F
100
AcDbEntity
  8
0
100
AcDbLine
 10
114.8738916343
 20
-479.6993994231
 30
0.0
 11
114.8738916343
 21
-464.6993994231
 31
0.0
  0
LINE
  5
614
330
1F
100
AcDbEntity
  8
0
100
AcDbLine
 10
98.4194089624
 20
-455.1993994231
 30
0.0
 11
83.4194089624
 21
-455.1993994231
 31
0.0
  0
LINE
  5
615
330
1F
100
AcDbEntity
  8
0
100
AcDbLine
 10
83.4194089624
 20
-470.1993994231
 30
0.0
 11
98.4194089624
 21
-470.1993994231
 31
0.0
  0
LINE
  5
616
330
1F
100
AcDbEntity
  8
0
100
AcDbLine
 10
98.4194089624
 20
-470.1993994231
 30
0.0
 11
98.4194089624
 21
-455.1993994231
 31
0.0
  0
LINE
  5
617
330
1F
100
AcDbEntity
  8
0
100
AcDbLine
 10
81.9649262905
 20
-445.6993994231
 30
0.0
 11
66.9649262905
 21
-445.6993994231
 31
0.0
  0
LINE
  5
618
330
1F
100
AcDbEntity
  8
0
100
AcDbLine
 10
66.9649262905
 20
-460.6993994231
 30
0.0
 11
81.9649262905
 21
-460.6993994231
 31
0.0
  0
LINE
  5
619
330
1F
100
AcDbEntity
  8
0
100
AcDbLine
 10
81.9649262905
 20
-460.6993994231
 30
0.0
 11
81.9649262905
 21
-445.6993994231
 31
0.0
  0
LINE
  5
61A
330
1F
100
AcDbEntity
  8
0
100
AcDbLine
 10
180.6918223219
 20
-483.6993994231
 30
0.0
 11
165.6918223219
 21
-483.6993994231
 31
0.0
  0
LINE
  5
61B
330
1F
100
AcDbEntity
  8
0
100
AcDbLine
 10
165.6918223219
 20
-483.6993994231
 30
0.0
 11
165.6918223219
 21
-498.6993994231
 31
0.0
  0
LINE
  5
61C
330
1F
100
AcDbEntity
  8
0
100
AcDbLine
 10
165.6918223219
 20
-498.6993994231
 30
0.0
 11
180.6918223219
 21
-498.6993994231
 31
0.0
  0
LINE
  5
61D
330
1F
100
AcDbEntity
  8
0
100
AcDbLine
 10
180.6918223219
 20
-498.6993994231
 30
0.0
 11
180.6918223219
 21
-483.6993994231
 31
0.0
  0
LINE
  5
61E
330
1F
100
AcDbEntity
  8
0
100
AcDbLine
 10
164.23733965
 20
-474.1993994231
 30
0.0
 11
149.23733965
 21
-474.1993994231
 31
0.0
  0
LINE
  5
61F
330
1F
100
AcDbEntity
  8
0
100
AcDbLine
 10
149.23733965
 20
-474.1993994231
 30
0.0
 11
149.23733965
 21
-489.1993994231
 31
0.0
  0
LINE
  5
620
330
1F
100
AcDbEntity
  8
0
100
AcDbLine
 10
149.23733965
 20
-489.1993994231
 30
0.0
 11
164.23733965
 21
-489.1993994231
 31
0.0
  0
LINE
  5
621
330
1F
100
AcDbEntity
  8
0
100
AcDbLine
 10
164.23733965
 20
-489.1993994231
 30
0.0
 11
164.23733965
 21
-474.1993994231
 31
0.0
  0
LINE
  5
622
330
1F
100
AcDbEntity
  8
0
100
AcDbLine
 10
147.7828569781
 20
-464.6993994231
 30
0.0
 11
132.7828569781
 21
-464.6993994231
 31
0.0
  0
LINE
  5
623
330
1F
100
AcDbEntity
  8
0
100
AcDbLine
 10
132.7828569781
 20
-464.6993994231
 30
0.0
 11
132.7828569781
 21
-479.6993994231
 31
0.0
  0
LINE
  5
624
330
1F
100
AcDbEntity
  8
0
100
AcDbLine
 10
132.7828569781
 20
-479.6993994231
 30
0.0
 11
147.7828569781
 21
-479.6993994231
 31
0.0
  0
LINE
  5
625
330
1F
100
AcDbEntity
  8
0
100
AcDbLine
 10
147.7828569781
 20
-479.6993994231
 30
0.0
 11
147.7828569781
 21
-464.6993994231
 31
0.0
  0
LINE
  5
626
330
1F
100
AcDbEntity
  8
0
100
AcDbLine
 10
116.3283743062
 20
-470.1993994231
 30
0.0
 11
131.3283743062
 21
-470.1993994231
 31
0.0
  0
LINE
  5
627
330
1F
100
AcDbEntity
  8
0
100
AcDbLine
 10
66.9649262905
 20
-612.6993994231
 30
0.0
 11
81.9649262905
 21
-612.6993994231
 31
0.0
  0
LINE
  5
628
330
1F
100
AcDbEntity
  8
0
100
AcDbLine
 10
81.9649262905
 20
-612.6993994231
 30
0.0
 11
81.9649262905
 21
-597.6993994231
 31
0.0
  0
LINE
  5
629
330
1F
100
AcDbEntity
  8
0
100
AcDbLine
 10
81.9649262905
 20
-597.6993994231
 30
0.0
 11
66.9649262905
 21
-597.6993994231
 31
0.0
  0
LINE
  5
62A
330
1F
100
AcDbEntity
  8
0
100
AcDbLine
 10
66.9649262905
 20
-597.6993994231
 30
0.0
 11
66.9649262905
 21
-612.6993994231
 31
0.0
  0
ARC
  5
62B
330
1F
100
AcDbEntity
  8
0
100
AcDbCircle
 10
74.4649262905
 20
-605.1993994231
 30
0.0
 40
164.0
100
AcDbArc
 50
92.6211480012
 51
93.1299349279
  0
LINE
  5
62C
330
1F
100
AcDbEntity
  8
0
100
AcDbLine
 10
83.4194089624
 20
-455.1993994231
 30
0.0
 11
83.4194089624
 21
-470.1993994231
 31
0.0
  0
ARC
  5
62D
330
1F
100
AcDbEntity
  8
0
100
AcDbCircle
 10
74.4649262905
 20
-605.1993994231
 30
0.0
 40
164.0000000000001
100
AcDbArc
 50
104.2643556964
 51
104.7892838776
  0
ARC
  5
62E
330
1F
100
AcDbEntity
  8
0
100
AcDbCircle
 10
74.4649262905
 20
-605.1993994231
 30
0.0
 40
164.0
100
AcDbArc
 50
98.3988932157
 51
103.453028064
  0
LINE
  5
62F
330
1F
100
AcDbEntity
  8
0
100
AcDbLine
 10
66.9649262905
 20
-445.6993994231
 30
0.0
 11
66.9649262905
 21
-460.6993994231
 31
0.0
  0
LINE
  5
630
330
1F
100
AcDbEntity
  8
0
100
AcDbLine
 10
132.7828569781
 20
-451.9185494766
 30
0.0
 11
132.7828569781
 21
-460.6993994231
 31
0.0
  0
ARC
  5
631
330
1F
100
AcDbEntity
  8
0
100
AcDbCircle
 10
74.4649262905
 20
-605.1993994231
 30
0.0
 40
164.0000000000001
100
AcDbArc
 50
110.1116443043
 51
110.8300460413
  0
LINE
  5
632
330
1F
100
AcDbEntity
  8
0
100
AcDbLine
 10
132.7828569781
 20
-460.6993994231
 30
0.0
 11
147.7828569781
 21
-460.6993994231
 31
0.0
  0
ARC
  5
633
330
1F
100
AcDbEntity
  8
0
100
AcDbCircle
 10
74.4649262905
 20
-605.1993994231
 30
0.0
 40
164.0
100
AcDbArc
 50
116.5552479019
 51
117.124746183
  0
LINE
  5
634
330
1F
100
AcDbEntity
  8
0
100
AcDbLine
 10
116.3283743062
 20
-455.1993994231
 30
0.0
 11
116.3283743062
 21
-470.1993994231
 31
0.0
  0
LINE
  5
635
330
1F
100
AcDbEntity
  8
0
100
AcDbLine
 10
131.3283743062
 20
-455.1993994231
 30
0.0
 11
116.3283743062
 21
-455.1993994231
 31
0.0
  0
LINE
  5
636
330
1F
100
AcDbEntity
  8
0
100
AcDbLine
 10
131.3283743062
 20
-470.1993994231
 30
0.0
 11
131.3283743062
 21
-455.1993994231
 31
0.0
  0
LINE
  5
637
330
1F
100
AcDbEntity
  8
0
100
AcDbLine
 10
65.5104436186
 20
-470.1993994231
 30
0.0
 11
65.5104436186
 21
-455.1993994231
 31
0.0
  0
LINE
  5
638
330
1F
100
AcDbEntity
  8
0
100
AcDbLine
 10
112.6192183164
 20
-445.6993994231
 30
0.0
 11
99.8738916343
 21
-445.6993994231
 31
0.0
  0
LINE
  5
639
330
1F
100
AcDbEntity
  8
0
100
AcDbLine
 10
99.8738916343
 20
-445.6993994231
 30
0.0
 11
99.8738916343
 21
-460.6993994231
 31
0.0
  0
LINE
  5
63A
330
1F
100
AcDbEntity
  8
0
100
AcDbLine
 10
99.8738916343
 20
-460.6993994231
 30
0.0
 11
114.8738916343
 21
-460.6993994231
 31
0.0
  0
LINE
  5
63B
330
1F
100
AcDbEntity
  8
0
100
AcDbLine
 10
114.8738916343
 20
-460.6993994231
 30
0.0
 11
114.8738916343
 21
-446.2556498768
 31
0.0
  0
CIRCLE
  5
63C
330
1F
100
AcDbEntity
  8
0
100
AcDbCircle
 10
74.4649262905
 20
-605.1993994231
 30
0.0
 40
164.5499999999998
  0
LWPOLYLINE
  5
63D
330
1F
100
AcDbEntity
  8
0
100
AcDbPolyline
 90
        3
 70
   128
 43
0.0
 10
74.4649262905
 20
-447.6813532054
 10
81.9036253331
 20
-447.8570953825
 10
81.9649262905
 20
-447.8600054868
  0
ARC
  5
63E
330
1F
100
AcDbEntity
  8
0
100
AcDbCircle
 10
74.4649262905
 20
-605.1993994231
 30
0.0
 40
157.5180462177037
100
AcDbArc
 50
81.2528322692
 51
86.7411302231
  0
ARC
  5
63F
330
1F
100
AcDbEntity
  8
0
100
AcDbCircle
 10
74.4649262905
 20
-605.1993994231
 30
0.0
 40
157.5180462177037
100
AcDbArc
 50
75.1354122279
 51
80.7171582893
  0
LWPOLYLINE
  5
640
330
1F
100
AcDbEntity
  8
0
100
AcDbPolyline
 90
        3
 70
   128
 43
0.0
 10
122.5475102918
 20
-455.1993994231
 10
125.6109522876
 20
-456.2161154314
 10
131.3283743062
 20
-458.3032348577
  0
LINE
  5
641
330
1F
100
AcDbEntity
  8
0
100
AcDbLine
 10
132.7828569781
 20
-458.8745763596
 30
0.0
 11
137.1680752086
 21
-460.6993994231
 31
0.0
  0
LWPOLYLINE
  5
642
330
1F
100
AcDbEntity
  8
0
100
AcDbPolyline
 90
        3
 70
   128
 43
0.0
 10
145.6806891822
 20
-464.6993994231
 10
146.1423327822
 20
-464.9343493113
 10
147.7828569781
 20
-465.7848523918
  0
LWPOLYLINE
  5
643
330
1F
100
AcDbEntity
  8
0
100
AcDbPolyline
 90
        3
 70
   128
 43
0.0
 10
149.23733965
 20
-466.5595022627
 10
152.6862988563
 20
-468.4757666519
 10
155.6248602742
 20
-470.1993994231
  0
LINE
  5
644
330
1F
100
AcDbEntity
  8
0
100
AcDbLine
 10
161.9345489274
 20
-474.1993994231
 30
0.0
 11
164.23733965
 21
-475.7666034097
 31
0.0
  0
LINE
  5
645
330
1F
100
AcDbEntity
  8
0
100
AcDbLine
 10
165.6918223219
 20
-476.7876074228
 30
0.0
 11
169.6578088198
 21
-479.6993994231
 31
0.0
  0
LWPOLYLINE
  5
646
330
1F
100
AcDbEntity
  8
0
100
AcDbPolyline
 90
        3
 70
   128
 43
0.0
 10
174.7130429025
 20
-483.6993994231
 10
176.9767484279
 20
-485.6031569808
 10
180.6918223219
 20
-488.8904081809
  0
ARC
  5
647
330
1F
100
AcDbEntity
  8
0
100
AcDbCircle
 10
74.4649262905
 20
-605.1993994231
 30
0.0
 40
157.5180462177037
100
AcDbArc
 50
38.845497065
 51
45.3187516904
  0
LWPOLYLINE
  5
648
330
1F
100
AcDbEntity
  8
0
100
AcDbPolyline
 90
        3
 70
   128
 43
0.0
 10
198.6007876657
 20
-508.2343397115
 10
202.1180461057
 20
-512.913886553
 10
205.4446380181
 20
-517.6993994231
  0
LWPOLYLINE
  5
649
330
1F
100
AcDbEntity
  8
0
100
AcDbPolyline
 90
        3
 70
   128
 43
0.0
 10
208.0302095203
 20
-521.6993994231
 10
210.2552115861
 20
-525.3687455137
 10
213.6007876657
 20
-531.3539732708
  0
ARC
  5
64A
330
1F
100
AcDbEntity
  8
0
100
AcDbCircle
 10
74.4649262905
 20
-605.1993994231
 30
0.0
 40
157.5180462177037
100
AcDbArc
 50
21.9971366971
 51
26.8064775259
  0
ARC
  5
64B
330
1F
100
AcDbEntity
  8
0
100
AcDbCircle
 10
74.4649262905
 20
-605.1993994231
 30
0.0
 40
157.5180462177036
100
AcDbArc
 50
14.7107343696
 51
20.4363333514
  0
LWPOLYLINE
  5
64C
330
1F
100
AcDbEntity
  8
0
100
AcDbPolyline
 90
        3
 70
   128
 43
0.0
 10
227.8139885121
 20
-569.1993994231
 10
228.8186903291
 20
-573.785224098
 10
230.0552703376
 20
-580.6315398595
  0
LINE
  5
64D
330
1F
100
AcDbEntity
  8
0
100
AcDbLine
 10
231.5097530096
 20
-592.9986910409
 30
0.0
 11
231.5626184577
 21
-593.6993994231
 31
0.0
  0
ARC
  5
64E
330
1F
100
AcDbEntity
  8
0
100
AcDbCircle
 10
74.4649262905
 20
-605.1993994231
 30
0.0
 40
157.5180462177037
100
AcDbArc
 50
357.2709102968
 51
2.7290897032
  0
LINE
  5
64F
330
1F
100
AcDbEntity
  8
0
100
AcDbLine
 10
231.5626184577
 20
-616.6993994231
 30
0.0
 11
231.5097530096
 21
-617.4001078053
 31
0.0
  0
ARC
  5
650
330
1F
100
AcDbEntity
  8
0
100
AcDbCircle
 10
74.4649262905
 20
-605.1993994231
 30
0.0
 40
157.5180462177037
100
AcDbArc
 50
346.7885608115
 51
351.0270273404
  0
ARC
  5
651
330
1F
100
AcDbEntity
  8
0
100
AcDbCircle
 10
74.4649262905
 20
-605.1993994231
 30
0.0
 40
157.5180462177036
100
AcDbArc
 50
339.5636666486
 51
345.2892656304
  0
ARC
  5
652
330
1F
100
AcDbEntity
  8
0
100
AcDbCircle
 10
74.4649262905
 20
-605.1993994231
 30
0.0
 40
157.5180462177036
100
AcDbArc
 50
333.1935224741
 51
338.0028633029
  0
ARC
  5
653
330
1F
100
AcDbEntity
  8
0
100
AcDbCircle
 10
74.4649262905
 20
-605.1993994231
 30
0.0
 40
157.5180462177036
100
AcDbArc
 50
327.9879240106
 51
332.0431720709
  0
ARC
  5
654
330
1F
100
AcDbEntity
  8
0
100
AcDbCircle
 10
74.4649262905
 20
-605.1993994231
 30
0.0
 40
157.5180462177036
100
AcDbArc
 50
322.0058772472
 51
326.2553971493
  0
ARC
  5
655
330
1F
100
AcDbEntity
  8
0
100
AcDbCircle
 10
74.4649262905
 20
-605.1993994231
 30
0.0
 40
157.5180462177036
100
AcDbArc
 50
314.6812483096
 51
321.154502935
  0
LWPOLYLINE
  5
656
330
1F
100
AcDbEntity
  8
0
100
AcDbPolyline
 90
        3
 70
   128
 43
0.0
 10
180.6918223219
 20
-721.5083906653
 10
179.7728712822
 20
-722.3410726478
 10
174.7130429025
 20
-726.6993994231
  0
LWPOLYLINE
  5
657
330
1F
100
AcDbEntity
  8
0
100
AcDbPolyline
 90
        3
 70
   128
 43
0.0
 10
169.6578088198
 20
-730.6993994231
 10
168.251614836
 20
-731.7537037193
 10
165.6918223219
 20
-733.6111914233
  0
LWPOLYLINE
  5
658
330
1F
100
AcDbEntity
  8
0
100
AcDbPolyline
 90
        3
 70
   128
 43
0.0
 10
164.23733965
 20
-734.6321954365
 10
162.170523291
 20
-736.0415300196
 10
161.9345489274
 20
-736.1993994231
  0
LWPOLYLINE
  5
659
330
1F
100
AcDbEntity
  8
0
100
AcDbPolyline
 90
        3
 70
   128
 43
0.0
 10
155.6248602742
 20
-740.1993994231
 10
149.4352297441
 20
-743.7323864129
 10
149.23733965
 20
-743.8392965834
  0
LINE
  5
65A
330
1F
100
AcDbEntity
  8
0
100
AcDbLine
 10
147.7828569781
 20
-744.6139464543
 30
0.0
 11
145.6806891822
 21
-745.6993994231
 31
0.0
  0
LWPOLYLINE
  5
65B
330
1F
100
AcDbEntity
  8
0
100
AcDbPolyline
 90
        3
 70
   128
 43
0.0
 10
137.1680752086
 20
-749.6993994231
 10
136.0311572339
 20
-750.1874475225
 10
132.7828569781
 20
-751.5242224866
  0
LWPOLYLINE
  5
65C
330
1F
100
AcDbEntity
  8
0
100
AcDbPolyline
 90
        3
 70
   128
 43
0.0
 10
131.3283743062
 20
-752.0955639884
 10
129.1154909708
 20
-752.9331148179
 10
122.5475102918
 20
-755.1993994231
  0
ARC
  5
65D
330
1F
100
AcDbEntity
  8
0
100
AcDbCircle
 10
74.4649262905
 20
-605.1993994231
 30
0.0
 40
157.5180462177036
100
AcDbArc
 50
279.2828417107
 51
284.8645877721
  0
ARC
  5
65E
330
1F
100
AcDbEntity
  8
0
100
AcDbCircle
 10
74.4649262905
 20
-605.1993994231
 30
0.0
 40
157.5180462177036
100
AcDbArc
 50
273.2588697769
 51
278.7471677308
  0
ARC
  5
65F
330
1F
100
AcDbEntity
  8
0
100
AcDbCircle
 10
74.4649262905
 20
-605.1993994231
 30
0.0
 40
157.5180462177035
100
AcDbArc
 50
267.2709102968
 51
272.7290897032
  0
ARC
  5
660
330
1F
100
AcDbEntity
  8
0
100
AcDbCircle
 10
74.4649262905
 20
-605.1993994231
 30
0.0
 40
157.5180462177036
100
AcDbArc
 50
261.2528322692
 51
266.7411302231
  0
ARC
  5
661
330
1F
100
AcDbEntity
  8
0
100
AcDbCircle
 10
74.4649262905
 20
-605.1993994231
 30
0.0
 40
157.5180462177035
100
AcDbArc
 50
255.1354122279
 51
260.7171582893
  0
LWPOLYLINE
  5
662
330
1F
100
AcDbEntity
  8
0
100
AcDbPolyline
 90
        3
 70
   128
 43
0.0
 10
26.3823422892
 20
-755.1993994231
 10
19.8143616102
 20
-752.9331148179
 10
17.6014782748
 20
-752.0955639884
  0
LWPOLYLINE
  5
663
330
1F
100
AcDbEntity
  8
0
100
AcDbPolyline
 90
        3
 70
   128
 43
0.0
 10
16.1469956029
 20
-751.5242224866
 10
12.8986953471
 20
-750.1874475225
 10
11.7617773724
 20
-749.6993994231
  0
LINE
  5
664
330
1F
100
AcDbEntity
  8
0
100
AcDbLine
 10
3.2491633988
 20
-745.6993994231
 30
0.0
 11
1.1469956029
 21
-744.6139464543
 31
0.0
  0
LWPOLYLINE
  5
665
330
1F
100
AcDbEntity
  8
0
100
AcDbPolyline
 90
        3
 70
   128
 43
0.0
 10
-0.307487069
 20
-743.8392965834
 10
-0.5053771631
 20
-743.7323864129
 10
-6.6950076932
 20
-740.1993994231
  0
LWPOLYLINE
  5
666
330
1F
100
AcDbEntity
  8
0
100
AcDbPolyline
 90
        3
 70
   128
 43
0.0
 10
-13.0046963464
 20
-736.1993994231
 10
-13.24067071
 20
-736.0415300196
 10
-15.307487069
 20
-734.6321954365
  0
LWPOLYLINE
  5
667
330
1F
100
AcDbEntity
  8
0
100
AcDbPolyline
 90
        3
 70
   128
 43
0.0
 10
-16.7619697409
 20
-733.6111914233
 10
-19.321762255
 20
-731.7537037193
 10
-20.7279562388
 20
-730.6993994231
  0
LWPOLYLINE
  5
668
330
1F
100
AcDbEntity
  8
0
100
AcDbPolyline
 90
        3
 70
   128
 43
0.0
 10
-25.7831903214
 20
-726.6993994231
 10
-30.8430187012
 20
-722.3410726478
 10
-31.7619697409
 20
-721.5083906653
  0
ARC
  5
669
330
1F
100
AcDbEntity
  8
0
100
AcDbCircle
 10
74.4649262905
 20
-605.1993994231
 30
0.0
 40
157.5180462177036
100
AcDbArc
 50
218.845497065
 51
225.3187516904
  0
ARC
  5
66A
330
1F
100
AcDbEntity
  8
0
100
AcDbCircle
 10
74.4649262905
 20
-605.1993994231
 30
0.0
 40
157.5180462177037
100
AcDbArc
 50
213.7446028507
 51
217.9941227528
  0
ARC
  5
66B
330
1F
100
AcDbEntity
  8
0
100
AcDbCircle
 10
74.4649262905
 20
-605.1993994231
 30
0.0
 40
157.5180462177036
100
AcDbArc
 50
207.9568279291
 51
212.0120759894
  0
ARC
  5
66C
330
1F
100
AcDbEntity
  8
0
100
AcDbCircle
 10
74.4649262905
 20
-605.1993994231
 30
0.0
 40
157.5180462177036
100
AcDbArc
 50
201.9971366971
 51
206.8064775259
  0
ARC
  5
66D
330
1F
100
AcDbEntity
  8
0
100
AcDbCircle
 10
74.4649262905
 20
-605.1993994231
 30
0.0
 40
157.5180462177037
100
AcDbArc
 50
194.7107343696
 51
200.4363333514
  0
ARC
  5
66E
330
1F
100
AcDbEntity
  8
0
100
AcDbCircle
 10
74.4649262905
 20
-605.1993994231
 30
0.0
 40
157.5180462177036
100
AcDbArc
 50
188.9729726596
 51
193.2114391885
  0
LINE
  5
66F
330
1F
100
AcDbEntity
  8
0
100
AcDbLine
 10
-82.5799004285
 20
-617.4001078053
 30
0.0
 11
-82.6327658766
 21
-616.6993994231
 31
0.0
  0
ARC
  5
670
330
1F
100
AcDbEntity
  8
0
100
AcDbCircle
 10
74.4649262905
 20
-605.1993994231
 30
0.0
 40
157.5180462177036
100
AcDbArc
 50
177.2709102968
 51
182.7290897032
  0
LINE
  5
671
330
1F
100
AcDbEntity
  8
0
100
AcDbLine
 10
-82.6327658766
 20
-593.6993994231
 30
0.0
 11
-82.5799004285
 21
-592.9986910409
 31
0.0
  0
LWPOLYLINE
  5
672
330
1F
100
AcDbEntity
  8
0
100
AcDbPolyline
 90
        3
 70
   128
 43
0.0
 10
-81.1254177566
 20
-580.6315398595
 10
-79.8888377481
 20
-573.785224098
 10
-78.8841359311
 20
-569.1993994231
  0
ARC
  5
673
330
1F
100
AcDbEntity
  8
0
100
AcDbCircle
 10
74.4649262905
 20
-605.1993994231
 30
0.0
 40
157.5180462177037
100
AcDbArc
 50
159.5636666486
 51
165.2892656304
  0
ARC
  5
674
330
1F
100
AcDbEntity
  8
0
100
AcDbCircle
 10
74.4649262905
 20
-605.1993994231
 30
0.0
 40
157.5180462177037
100
AcDbArc
 50
153.1935224741
 51
158.0028633029
  0
LWPOLYLINE
  5
675
330
1F
100
AcDbEntity
  8
0
100
AcDbPolyline
 90
        3
 70
   128
 43
0.0
 10
-64.6709350847
 20
-531.3539732708
 10
-61.325359005
 20
-525.3687455137
 10
-59.1003569392
 20
-521.6993994231
  0
LWPOLYLINE
  5
676
330
1F
100
AcDbEntity
  8
0
100
AcDbPolyline
 90
        3
 70
   128
 43
0.0
 10
-56.5147854371
 20
-517.6993994231
 10
-53.1881935247
 20
-512.913886553
 10
-49.6709350847
 20
-508.2343397115
  0
ARC
  5
677
330
1F
100
AcDbEntity
  8
0
100
AcDbCircle
 10
74.4649262905
 20
-605.1993994231
 30
0.0
 40
157.5180462177037
100
AcDbArc
 50
134.6812483096
 51
141.154502935
  0
LWPOLYLINE
  5
678
330
1F
100
AcDbEntity
  8
0
100
AcDbPolyline
 90
        3
 70
   128
 43
0.0
 10
-31.7619697409
 20
-488.8904081809
 10
-28.0468958468
 20
-485.6031569808
 10
-25.7831903214
 20
-483.6993994231
  0
LINE
  5
679
330
1F
100
AcDbEntity
  8
0
100
AcDbLine
 10
-20.7279562388
 20
-479.6993994231
 30
0.0
 11
-16.7619697409
 21
-476.7876074228
 31
0.0
  0
LINE
  5
67A
330
1F
100
AcDbEntity
  8
0
100
AcDbLine
 10
-15.307487069
 20
-475.7666034097
 30
0.0
 11
-13.0046963464
 21
-474.1993994231
 31
0.0
  0
LWPOLYLINE
  5
67B
330
1F
100
AcDbEntity
  8
0
100
AcDbPolyline
 90
        3
 70
   128
 43
0.0
 10
-6.6950076932
 20
-470.1993994231
 10
-3.7564462753
 20
-468.4757666519
 10
-0.307487069
 20
-466.5595022627
  0
LWPOLYLINE
  5
67C
330
1F
100
AcDbEntity
  8
0
100
AcDbPolyline
 90
        3
 70
   128
 43
0.0
 10
1.1469956029
 20
-465.7848523918
 10
2.7875197988
 20
-464.9343493113
 10
3.2491633988
 20
-464.6993994231
  0
LINE
  5
67D
330
1F
100
AcDbEntity
  8
0
100
AcDbLine
 10
11.7617773724
 20
-460.6993994231
 30
0.0
 11
16.1469956029
 21
-458.8745763596
 31
0.0
  0
LWPOLYLINE
  5
67E
330
1F
100
AcDbEntity
  8
0
100
AcDbPolyline
 90
        3
 70
   128
 43
0.0
 10
17.6014782748
 20
-458.3032348577
 10
23.3189002935
 20
-456.2161154314
 10
26.3823422892
 20
-455.1993994231
  0
ARC
  5
67F
330
1F
100
AcDbEntity
  8
0
100
AcDbCircle
 10
74.4649262905
 20
-605.1993994231
 30
0.0
 40
157.5180462177037
100
AcDbArc
 50
99.2828417107
 51
104.8645877721
  0
ARC
  5
680
330
1F
100
AcDbEntity
  8
0
100
AcDbCircle
 10
74.4649262905
 20
-605.1993994231
 30
0.0
 40
157.5180462177037
100
AcDbArc
 50
93.2588697769
 51
98.7471677308
  0
LWPOLYLINE
  5
681
330
1F
100
AcDbEntity
  8
0
100
AcDbPolyline
 90
        3
 70
   128
 43
0.0
 10
66.9649262905
 20
-447.8600054868
 10
67.0262272479
 20
-447.8570953825
 10
74.4649262905
 20
-447.6813532054
  0
CIRCLE
  5
682
330
1F
100
AcDbEntity
  8
0
100
AcDbCircle
 10
74.4649262905
 20
-605.1993994231
 30
0.0
 40
271.9649999999996
  0
CIRCLE
  5
683
330
1F
100
AcDbEntity
  8
0
  6
PHANTOM
 62
     8
370
    18
100
AcDbCircle
 10
74.4649262905
 20
-605.1993994231
 30
0.0
 40
277.9649999999996
  0
LINE
  5
684
330
1F
100
AcDbEntity
  8
0
100
AcDbLine
 10
84.4649262905
 20
839.9460837391
 30
0.0
 11
84.4649262905
 21
842.1960837391
 31
0.0
  0
LINE
  5
685
330
1F
100
AcDbEntity
  8
0
100
AcDbLine
 10
84.4649262905
 20
865.471525587
 30
0.0
 11
84.4649262905
 21
874.9460837391
 31
0.0
  0
LINE
  5
686
330
1F
100
AcDbEntity
  8
0
100
AcDbLine
 10
64.4649262905
 20
874.9460837391
 30
0.0
 11
64.4649262905
 21
865.471525587
 31
0.0
  0
LINE
  5
687
330
1F
100
AcDbEntity
  8
0
100
AcDbLine
 10
64.4649262905
 20
842.1960837391
 30
0.0
 11
64.4649262905
 21
839.9460837391
 31
0.0
  0
LINE
  5
688
330
1F
100
AcDbEntity
  8
0
100
AcDbLine
 10
84.4649262905
 20
874.9460837391
 30
0.0
 11
84.4649262905
 21
983.9460837391
 31
0.0
  0
LINE
  5
689
330
1F
100
AcDbEntity
  8
0
100
AcDbLine
 10
64.4649262905
 20
983.9460837391
 30
0.0
 11
64.4649262905
 21
874.9460837391
 31
0.0
  0
LINE
  5
68A
330
1F
100
AcDbEntity
  8
0
100
AcDbLine
 10
64.4649262905
 20
1018.9460837391
 30
0.0
 11
64.4649262905
 21
983.9460837391
 31
0.0
  0
LINE
  5
68B
330
1F
100
AcDbEntity
  8
0
100
AcDbLine
 10
84.4649262905
 20
983.9460837391
 30
0.0
 11
84.4649262905
 21
1018.9460837391
 31
0.0
  0
CIRCLE
  5
68C
330
1F
100
AcDbEntity
  8
0
100
AcDbCircle
 10
74.4649262905
 20
1018.9460837391
 30
0.0
 40
200.2
  0
CIRCLE
  5
68D
330
1F
100
AcDbEntity
  8
0
100
AcDbCircle
 10
74.4649262905
 20
1018.9460837391
 30
0.0
 40
279.015
  0
CIRCLE
  5
68E
330
1F
100
AcDbEntity
  8
0
100
AcDbCircle
 10
74.4649262905
 20
839.9460837391
 30
0.0
 40
8.0
  0
CIRCLE
  5
68F
330
1F
100
AcDbEntity
  8
0
100
AcDbCircle
 10
74.4649262905
 20
839.9460837391
 30
0.0
 40
10.0
  0
ARC
  5
690
330
1F
100
AcDbEntity
  8
0
100
AcDbCircle
 10
74.4649262905
 20
1018.9460837391
 30
0.0
 40
10.00000000000001
100
AcDbArc
 50
0.0
 51
180.0
  0
CIRCLE
  5
691
330
1F
100
AcDbEntity
  8
0
100
AcDbCircle
 10
74.4649262905
 20
1018.9460837391
 30
0.0
 40
164.5
  0
CIRCLE
  5
692
330
1F
100
AcDbEntity
  8
0
100
AcDbCircle
 10
74.4649262905
 20
1018.9460837391
 30
0.0
 40
157.4999999999998
  0
CIRCLE
  5
693
330
1F
100
AcDbEntity
  8
0
100
AcDbCircle
 10
74.4649262905
 20
1018.9460837391
 30
0.0
 40
154.4999999999998
  0
CIRCLE
  5
694
330
1F
100
AcDbEntity
  8
0
100
AcDbCircle
 10
74.4649262905
 20
1018.9460837391
 30
0.0
 40
153.9399999999998
  0
CIRCLE
  5
695
330
1F
100
AcDbEntity
  8
0
100
AcDbCircle
 10
74.4649262905
 20
1018.9460837391
 30
0.0
 40
153.7999999999997
  0
CIRCLE
  5
696
330
1F
100
AcDbEntity
  8
0
100
AcDbCircle
 10
74.4649262905
 20
839.9460837391
 30
0.0
 40
10.25
  0
ARC
  5
697
330
1F
100
AcDbEntity
  8
0
100
AcDbCircle
 10
98.4649262905
 20
1193.3460837391
 30
0.0
 40
7.000000000000455
100
AcDbArc
 50
270.0
 51
90.0
  0
LINE
  5
698
330
1F
100
AcDbEntity
  8
0
100
AcDbLine
 10
50.4649262905
 20
1200.3460837391
 30
0.0
 11
98.4649262905
 21
1200.3460837391
 31
0.0
  0
ARC
  5
699
330
1F
100
AcDbEntity
  8
0
100
AcDbCircle
 10
50.4649262905
 20
1193.3460837391
 30
0.0
 40
7.000000000000455
100
AcDbArc
 50
90.0
 51
270.0
  0
LINE
  5
69A
330
1F
100
AcDbEntity
  8
0
100
AcDbLine
 10
98.4649262905
 20
1186.3460837391
 30
0.0
 11
50.4649262905
 21
1186.3460837391
 31
0.0
  0
ARC
  5
69B
330
1F
100
AcDbEntity
  8
0
100
AcDbCircle
 10
0.3672525142
 20
1178.6360794838
 30
0.0
 40
7.000000000000117
100
AcDbArc
 50
302.7272727273
 51
122.7272727273
  0
LINE
  5
69C
330
1F
100
AcDbEntity
  8
0
100
AcDbLine
 10
-43.7974027839
 20
1158.5740949758
 30
0.0
 11
-3.417233208
 21
1184.5248542136
 31
0.0
  0
ARC
  5
69D
330
1F
100
AcDbEntity
  8
0
100
AcDbCircle
 10
-40.0129170617
 20
1152.6853202459
 30
0.0
 40
6.999999999999917
100
AcDbArc
 50
122.7272727273
 51
302.7272727273
  0
LINE
  5
69E
330
1F
100
AcDbEntity
  8
0
100
AcDbLine
 10
4.1517382364
 20
1172.747304754
 30
0.0
 11
-36.2284313395
 21
1146.7965455161
 31
0.0
  0
ARC
  5
69F
330
1F
100
AcDbEntity
  8
0
100
AcDbCircle
 10
-74.2049333873
 20
1113.2256298951
 30
0.0
 40
7.000000000000616
100
AcDbArc
 50
335.4545454545
 51
155.4545454545
  0
LINE
  5
6A0
330
1F
100
AcDbEntity
  8
0
100
AcDbLine
 10
-100.5122779788
 20
1072.4711992091
 30
0.0
 11
-80.5723573548
 21
1116.1335349862
 31
0.0
  0
ARC
  5
6A1
330
1F
100
AcDbEntity
  8
0
100
AcDbCircle
 10
-94.1448540114
 20
1069.5632941181
 30
0.0
 40
7.000000000000546
100
AcDbArc
 50
155.4545454545
 51
335.4545454545
  0
LINE
  5
6A2
330
1F
100
AcDbEntity
  8
0
100
AcDbLine
 10
-67.8375094198
 20
1110.3177248041
 30
0.0
 11
-87.7774300439
 21
1066.6553890271
 31
0.0
  0
ARC
  5
6A3
330
1F
100
AcDbEntity
  8
0
100
AcDbCircle
 10
-101.5754892921
 20
1017.8820905494
 30
0.0
 40
7.000000000000039
100
AcDbArc
 50
8.1818181818
 51
188.1818181818
  0
LINE
  5
6A4
330
1F
100
AcDbEntity
  8
0
100
AcDbLine
 10
-101.6731271481
 20
969.3744574712
 30
0.0
 11
-108.5042393853
 21
1016.8858866815
 31
0.0
  0
ARC
  5
6A5
330
1F
100
AcDbEntity
  8
0
100
AcDbCircle
 10
-94.744377055
 20
970.3706613391
 30
0.0
 40
7.00000000000066
100
AcDbArc
 50
188.1818181818
 51
8.1818181818
  0
LINE
  5
6A6
330
1F
100
AcDbEntity
  8
0
100
AcDbLine
 10
-94.6467391989
 20
1018.8782944173
 30
0.0
 11
-87.8156269618
 21
971.366865207
 31
0.0
  0
ARC
  5
6A7
330
1F
100
AcDbEntity
  8
0
100
AcDbCircle
 10
-73.0544570916
 20
922.8763615236
 30
0.0
 40
7.00000000000035
100
AcDbArc
 50
40.9090909091
 51
220.9090909091
  0
LINE
  5
6A8
330
1F
100
AcDbEntity
  8
0
100
AcDbLine
 10
-46.9113888827
 20
882.0163568169
 30
0.0
 11
-78.344704112
 21
918.2923363859
 31
0.0
  0
ARC
  5
6A9
330
1F
100
AcDbEntity
  8
0
100
AcDbCircle
 10
-41.6211418622
 20
886.6003819545
 30
0.0
 40
7.000000000000023
100
AcDbArc
 50
220.9090909091
 51
40.9090909091
  0
LINE
  5
6AA
330
1F
100
AcDbEntity
  8
0
100
AcDbLine
 10
-67.7642100711
 20
927.4603866612
 30
0.0
 11
-36.3308948417
 21
891.1844070922
 31
0.0
  0
ARC
  5
6AB
330
1F
100
AcDbEntity
  8
0
100
AcDbCircle
 10
2.3029370106
 20
858.3720905049
 30
0.0
 40
7.000000000000082
100
AcDbArc
 50
73.6363636364
 51
253.6363636364
  0
LINE
  5
6AC
330
1F
100
AcDbEntity
  8
0
100
AcDbLine
 10
46.3864718462
 20
838.1324769612
 30
0.0
 11
0.3308091127
 21
851.6556396896
 31
0.0
  0
ARC
  5
6AD
330
1F
100
AcDbEntity
  8
0
100
AcDbCircle
 10
48.3585997441
 20
844.8489277765
 30
0.0
 40
6.999999999999805
100
AcDbArc
 50
253.6363636364
 51
73.6363636364
  0
LINE
  5
6AE
330
1F
100
AcDbEntity
  8
0
100
AcDbLine
 10
4.2750649085
 20
865.0885413202
 30
0.0
 11
50.330727642
 21
851.5653785918
 31
0.0
  0
ARC
  5
6AF
330
1F
100
AcDbEntity
  8
0
100
AcDbCircle
 10
100.5712528369
 20
844.8489277765
 30
0.0
 40
6.999999999999999
100
AcDbArc
 50
106.3636363636
 51
286.3636363636
  0
LINE
  5
6B0
330
1F
100
AcDbEntity
  8
0
100
AcDbLine
 10
148.5990434683
 20
851.6556396896
 30
0.0
 11
102.5433807348
 21
838.1324769612
 31
0.0
  0
ARC
  5
6B1
330
1F
100
AcDbEntity
  8
0
100
AcDbCircle
 10
146.6269155704
 20
858.3720905049
 30
0.0
 40
7.000000000000105
100
AcDbArc
 50
286.3636363636
 51
106.3636363636
  0
LINE
  5
6B2
330
1F
100
AcDbEntity
  8
0
100
AcDbLine
 10
98.599124939
 20
851.5653785918
 30
0.0
 11
144.6547876725
 21
865.0885413202
 31
0.0
  0
ARC
  5
6B3
330
1F
100
AcDbEntity
  8
0
100
AcDbCircle
 10
190.5509944432
 20
886.6003819546
 30
0.0
 40
6.999999999999933
100
AcDbArc
 50
139.0909090909
 51
319.0909090909
  0
LINE
  5
6B4
330
1F
100
AcDbEntity
  8
0
100
AcDbLine
 10
227.2745566931
 20
918.2923363859
 30
0.0
 11
195.8412414637
 21
882.0163568169
 31
0.0
  0
ARC
  5
6B5
330
1F
100
AcDbEntity
  8
0
100
AcDbCircle
 10
221.9843096726
 20
922.8763615236
 30
0.0
 40
6.999999999999987
100
AcDbArc
 50
319.0909090909
 51
139.0909090909
  0
LINE
  5
6B6
330
1F
100
AcDbEntity
  8
0
100
AcDbLine
 10
185.2607474227
 20
891.1844070922
 30
0.0
 11
216.6940626521
 21
927.4603866612
 31
0.0
  0
ARC
  5
6B7
330
1F
100
AcDbEntity
  8
0
100
AcDbCircle
 10
243.674229636
 20
970.3706613391
 30
0.0
 40
7.000000000000202
100
AcDbArc
 50
171.8181818182
 51
351.8181818182
  0
LINE
  5
6B8
330
1F
100
AcDbEntity
  8
0
100
AcDbLine
 10
257.4340919663
 20
1016.8858866815
 30
0.0
 11
250.6029797291
 21
969.3744574712
 31
0.0
  0
ARC
  5
6B9
330
1F
100
AcDbEntity
  8
0
100
AcDbCircle
 10
250.5053418731
 20
1017.8820905494
 30
0.0
 40
6.999999999999978
100
AcDbArc
 50
351.8181818182
 51
171.8181818182
  0
LINE
  5
6BA
330
1F
100
AcDbEntity
  8
0
100
AcDbLine
 10
236.7454795428
 20
971.366865207
 30
0.0
 11
243.5765917799
 21
1018.8782944173
 31
0.0
  0
ARC
  5
6BB
330
1F
100
AcDbEntity
  8
0
100
AcDbCircle
 10
243.0747065924
 20
1069.5632941181
 30
0.0
 40
7.000000000000208
100
AcDbArc
 50
204.5454545455
 51
24.5454545455
  0
LINE
  5
6BC
330
1F
100
AcDbEntity
  8
0
100
AcDbLine
 10
229.5022099358
 20
1116.1335349862
 30
0.0
 11
249.4421305599
 21
1072.4711992091
 31
0.0
  0
ARC
  5
6BD
330
1F
100
AcDbEntity
  8
0
100
AcDbCircle
 10
223.1347859683
 20
1113.2256298951
 30
0.0
 40
6.999999999999917
100
AcDbArc
 50
24.5454545455
 51
204.5454545455
  0
LINE
  5
6BE
330
1F
100
AcDbEntity
  8
0
100
AcDbLine
 10
236.7072826249
 20
1066.6553890271
 30
0.0
 11
216.7673620008
 21
1110.3177248041
 31
0.0
  0
ARC
  5
6BF
330
1F
100
AcDbEntity
  8
0
100
AcDbCircle
 10
188.9427696427
 20
1152.6853202459
 30
0.0
 40
7.000000000000122
100
AcDbArc
 50
237.2727272727
 51
57.2727272727
  0
LINE
  5
6C0
330
1F
100
AcDbEntity
  8
0
100
AcDbLine
 10
152.347085789
 20
1184.5248542136
 30
0.0
 11
192.7272553649
 21
1158.5740949758
 31
0.0
  0
ARC
  5
6C1
330
1F
100
AcDbEntity
  8
0
100
AcDbCircle
 10
148.5626000668
 20
1178.6360794838
 30
0.0
 40
7.000000000000233
100
AcDbArc
 50
57.2727272727
 51
237.2727272727
  0
LINE
  5
6C2
330
1F
100
AcDbEntity
  8
0
100
AcDbLine
 10
185.1582839205
 20
1146.7965455161
 30
0.0
 11
144.7781143446
 21
1172.747304754
 31
0.0
  0
CIRCLE
  5
6C3
330
1F
100
AcDbEntity
  8
0
100
AcDbCircle
 10
74.4649262905
 20
1018.9460837391
 30
0.0
 40
193.9999999999999
  0
CIRCLE
  5
6C4
330
1F
100
AcDbEntity
  8
0
100
AcDbCircle
 10
74.4649262905
 20
1018.9460837391
 30
0.0
 40
271.5341637708689
  0
CIRCLE
  5
6C5
330
1F
100
AcDbEntity
  8
0
100
AcDbCircle
 10
74.4649262905
 20
1018.9460837391
 30
0.0
 40
272.9649999999997
  0
LINE
  5
6C6
330
1F
100
AcDbEntity
  8
0
  6
PHANTOM
 62
     8
370
    18
100
AcDbLine
 10
64.4649262905
 20
874.9460837391
 30
0.0
 11
84.4649262905
 21
874.9460837391
 31
0.0
  0
LINE
  5
6C7
330
1F
100
AcDbEntity
  8
0
  6
PHANTOM
 62
     8
370
    18
100
AcDbLine
 10
64.4649262905
 20
983.9460837391
 30
0.0
 11
84.4649262905
 21
983.9460837391
 31
0.0
  0
CIRCLE
  5
6C8
330
1F
100
AcDbEntity
  8
0
  6
PHANTOM
 62
     8
370
    18
100
AcDbCircle
 10
74.4649262905
 20
1018.9460837391
 30
0.0
 40
198.9999999999999
  0
CIRCLE
  5
6C9
330
1F
100
AcDbEntity
  8
0
  6
PHANTOM
 62
     8
370
    18
100
AcDbCircle
 10
74.4649262905
 20
1018.9460837391
 30
0.0
 40
277.9649999999997
  0
ENDSEC
  0
SECTION
  2
OBJECTS
  0
DICTIONARY
  5
C
330
0
100
AcDbDictionary
281
     1
  3
ACAD_GROUP
350
D
  3
ACAD_LAYOUT
350
1A
  3
ACAD_MLINESTYLE
350
17
  3
ACAD_PLOTSETTINGS
350
19
  3
ACAD_PLOTSTYLENAME
350
E
  3
ACAD_SCALELIST
350
47
  3
DWGPROPS
350
6CA
  0
DICTIONARY
  5
D
102
{ACAD_REACTORS
330
C
102
}
330
C
100
AcDbDictionary
281
     1
  0
DICTIONARY
  5
1A
102
{ACAD_REACTORS
330
C
102
}
330
C
100
AcDbDictionary
281
     1
  3
Layout1
350
1E
  3
Layout2
350
26
  3
Model
350
22
  0
DICTIONARY
  5
17
102
{ACAD_REACTORS
330
C
102
}
330
C
100
AcDbDictionary
281
     1
  3
Standard
350
18
  0
DICTIONARY
  5
19
102
{ACAD_REACTORS
330
C
102
}
330
C
100
AcDbDictionary
281
     1
  0
ACDBDICTIONARYWDFLT
  5
E
102
{ACAD_REACTORS
330
C
102
}
330
C
100
AcDbDictionary
281
     1
  3
Normal
350
F
100
AcDbDictionaryWithDefault
340
F
  0
DICTIONARY
  5
47
102
{ACAD_REACTORS
330
C
102
}
330
C
100
AcDbDictionary
281
     1
  3
A0
350
48
  3
A1
350
49
  3
A2
350
4A
  3
A3
350
4B
  3
A4
350
4C
  3
A5
350
4D
  3
A6
350
4E
  3
A7
350
4F
  3
A8
350
50
  3
A9
350
51
  3
B0
350
52
  3
B1
350
53
  3
B2
350
54
  3
B3
350
55
  3
B4
350
56
  3
B5
350
57
  3
B6
350
58
  3
B7
350
59
  3
B8
350
5A
  3
B9
350
5B
  3
C0
350
5C
  3
C1
350
5D
  3
C2
350
5E
  3
C3
350
5F
  3
C4
350
60
  3
C5
350
61
  3
C6
350
62
  3
C7
350
63
  3
C8
350
64
  3
C9
350
65
  3
D0
350
66
  3
D1
350
67
  3
D2
350
68
  0
XRECORD
  5
6CA
102
{ACAD_REACTORS
330
C
102
}
330
C
100
AcDbXrecord
280
     1
  1
DWGPROPS COOKIE
  2

  3

  4

  6

  7

  8
Emilis.Masalas
  9

300
=
301
=
302
=
303
=
304
=
305
=
306
=
307
=
308
=
309
=
 40
0.0
 41
2459180.552509919
 42
2459180.552510382
  1

 90
        0
  0
LAYOUT
  5
1E
102
{ACAD_REACTORS
330
1A
102
}
330
1A
100
AcDbPlotSettings
  1

  2
none_device
  4

  6

 40
0.0
 41
0.0
 42
0.0
 43
0.0
 44
0.0
 45
0.0
 46
0.0
 47
0.0
 48
0.0
 49
0.0
140
0.0
141
0.0
142
1.0
143
1.0
 70
   688
 72
     1
 73
     0
 74
     5
  7

 75
    16
147
1.0
148
0.0
149
0.0
100
AcDbLayout
  1
Layout1
 70
     1
 71
     1
 10
0.0
 20
0.0
 11
420.0
 21
297.0
 12
0.0
 22
0.0
 32
0.0
 14
1.0000000000E+20
 24
1.0000000000E+20
 34
1.0000000000E+20
 15
-1.0000000000E+20
 25
-1.0000000000E+20
 35
-1.0000000000E+20
146
0.0
 13
0.0
 23
0.0
 33
0.0
 16
1.0
 26
0.0
 36
0.0
 17
0.0
 27
1.0
 37
0.0
 76
     0
330
1B
  0
LAYOUT
  5
26
102
{ACAD_REACTORS
330
1A
102
}
330
1A
100
AcDbPlotSettings
  1

  2
none_device
  4

  6

 40
0.0
 41
0.0
 42
0.0
 43
0.0
 44
0.0
 45
0.0
 46
0.0
 47
0.0
 48
0.0
 49
0.0
140
0.0
141
0.0
142
1.0
143
1.0
 70
   688
 72
     1
 73
     0
 74
     5
  7

 75
    16
147
1.0
148
0.0
149
0.0
100
AcDbLayout
  1
Layout2
 70
     1
 71
     2
 10
0.0
 20
0.0
 11
0.0
 21
0.0
 12
0.0
 22
0.0
 32
0.0
 14
0.0
 24
0.0
 34
0.0
 15
0.0
 25
0.0
 35
0.0
146
0.0
 13
0.0
 23
0.0
 33
0.0
 16
1.0
 26
0.0
 36
0.0
 17
0.0
 27
1.0
 37
0.0
 76
     0
330
23
  0
LAYOUT
  5
22
102
{ACAD_REACTORS
330
1A
102
}
330
1A
100
AcDbPlotSettings
  1

  2
none_device
  4
Letter_(8.50_x_11.00_Inches)
  6

 40
6.35
 41
6.35
 42
6.35000508
 43
6.35000508
 44
215.9
 45
279.4
 46
0.0
 47
0.0
 48
0.0
 49
0.0
140
0.0
141
0.0
142
1.0
143
1.0
 70
  1712
 72
     1
 73
     0
 74
     0
  7

 75
     0
147
1.0
148
0.0
149
0.0
100
AcDbLayout
  1
Model
 70
     1
 71
     0
 10
0.0
 20
0.0
 11
420.0
 21
297.0
 12
0.0
 22
0.0
 32
0.0
 14
0.0
 24
0.0
 34
0.0
 15
420.0
 25
297.0
 35
0.0
146
0.0
 13
0.0
 23
0.0
 33
0.0
 16
1.0
 26
0.0
 36
0.0
 17
0.0
 27
1.0
 37
0.0
 76
     0
330
1F
331
29
  0
MLINESTYLE
  5
18
102
{ACAD_REACTORS
330
17
102
}
330
17
100
AcDbMlineStyle
  2
Standard
 70
     0
  3

 62
   256
 51
90.0
 52
90.0
 71
     2
 49
0.5
 62
   256
  6
BYLAYER
 49
-0.5
 62
   256
  6
BYLAYER
  0
ACDBPLACEHOLDER
  5
F
102
{ACAD_REACTORS
330
E
102
}
330
E
  0
SCALE
  5
48
102
{ACAD_REACTORS
330
47
102
}
330
47
100
AcDbScale
 70
     0
300
1:1
140
1.0
141
1.0
290
     1
  0
SCALE
  5
49
102
{ACAD_REACTORS
330
47
102
}
330
47
100
AcDbScale
 70
     0
300
1:2
140
1.0
141
2.0
290
     0
  0
SCALE
  5
4A
102
{ACAD_REACTORS
330
47
102
}
330
47
100
AcDbScale
 70
     0
300
1:4
140
1.0
141
4.0
290
     0
  0
SCALE
  5
4B
102
{ACAD_REACTORS
330
47
102
}
330
47
100
AcDbScale
 70
     0
300
1:5
140
1.0
141
5.0
290
     0
  0
SCALE
  5
4C
102
{ACAD_REACTORS
330
47
102
}
330
47
100
AcDbScale
 70
     0
300
1:8
140
1.0
141
8.0
290
     0
  0
SCALE
  5
4D
102
{ACAD_REACTORS
330
47
102
}
330
47
100
AcDbScale
 70
     0
300
1:10
140
1.0
141
10.0
290
     0
  0
SCALE
  5
4E
102
{ACAD_REACTORS
330
47
102
}
330
47
100
AcDbScale
 70
     0
300
1:16
140
1.0
141
16.0
290
     0
  0
SCALE
  5
4F
102
{ACAD_REACTORS
330
47
102
}
330
47
100
AcDbScale
 70
     0
300
1:20
140
1.0
141
20.0
290
     0
  0
SCALE
  5
50
102
{ACAD_REACTORS
330
47
102
}
330
47
100
AcDbScale
 70
     0
300
1:30
140
1.0
141
30.0
290
     0
  0
SCALE
  5
51
102
{ACAD_REACTORS
330
47
102
}
330
47
100
AcDbScale
 70
     0
300
1:40
140
1.0
141
40.0
290
     0
  0
SCALE
  5
52
102
{ACAD_REACTORS
330
47
102
}
330
47
100
AcDbScale
 70
     0
300
1:50
140
1.0
141
50.0
290
     0
  0
SCALE
  5
53
102
{ACAD_REACTORS
330
47
102
}
330
47
100
AcDbScale
 70
     0
300
1:100
140
1.0
141
100.0
290
     0
  0
SCALE
  5
54
102
{ACAD_REACTORS
330
47
102
}
330
47
100
AcDbScale
 70
     0
300
2:1
140
2.0
141
1.0
290
     0
  0
SCALE
  5
55
102
{ACAD_REACTORS
330
47
102
}
330
47
100
AcDbScale
 70
     0
300
4:1
140
4.0
141
1.0
290
     0
  0
SCALE
  5
56
102
{ACAD_REACTORS
330
47
102
}
330
47
100
AcDbScale
 70
     0
300
8:1
140
8.0
141
1.0
290
     0
  0
SCALE
  5
57
102
{ACAD_REACTORS
330
47
102
}
330
47
100
AcDbScale
 70
     0
300
10:1
140
10.0
141
1.0
290
     0
  0
SCALE
  5
58
102
{ACAD_REACTORS
330
47
102
}
330
47
100
AcDbScale
 70
     0
300
100:1
140
100.0
141
1.0
290
     0
  0
SCALE
  5
59
102
{ACAD_REACTORS
330
47
102
}
330
47
100
AcDbScale
 70
     0
300
1/128" = 1'-0"
140
0.0078125
141
12.0
290
     0
  0
SCALE
  5
5A
102
{ACAD_REACTORS
330
47
102
}
330
47
100
AcDbScale
 70
     0
300
1/64" = 1'-0"
140
0.015625
141
12.0
290
     0
  0
SCALE
  5
5B
102
{ACAD_REACTORS
330
47
102
}
330
47
100
AcDbScale
 70
     0
300
1/32" = 1'-0"
140
0.03125
141
12.0
290
     0
  0
SCALE
  5
5C
102
{ACAD_REACTORS
330
47
102
}
330
47
100
AcDbScale
 70
     0
300
1/16" = 1'-0"
140
0.0625
141
12.0
290
     0
  0
SCALE
  5
5D
102
{ACAD_REACTORS
330
47
102
}
330
47
100
AcDbScale
 70
     0
300
3/32" = 1'-0"
140
0.09375
141
12.0
290
     0
  0
SCALE
  5
5E
102
{ACAD_REACTORS
330
47
102
}
330
47
100
AcDbScale
 70
     0
300
1/8" = 1'-0"
140
0.125
141
12.0
290
     0
  0
SCALE
  5
5F
102
{ACAD_REACTORS
330
47
102
}
330
47
100
AcDbScale
 70
     0
300
3/16" = 1'-0"
140
0.1875
141
12.0
290
     0
  0
SCALE
  5
60
102
{ACAD_REACTORS
330
47
102
}
330
47
100
AcDbScale
 70
     0
300
1/4" = 1'-0"
140
0.25
141
12.0
290
     0
  0
SCALE
  5
61
102
{ACAD_REACTORS
330
47
102
}
330
47
100
AcDbScale
 70
     0
300
3/8" = 1'-0"
140
0.375
141
12.0
290
     0
  0
SCALE
  5
62
102
{ACAD_REACTORS
330
47
102
}
330
47
100
AcDbScale
 70
     0
300
1/2" = 1'-0"
140
0.5
141
12.0
290
     0
  0
SCALE
  5
63
102
{ACAD_REACTORS
330
47
102
}
330
47
100
AcDbScale
 70
     0
300
3/4" = 1'-0"
140
0.75
141
12.0
290
     0
  0
SCALE
  5
64
102
{ACAD_REACTORS
330
47
102
}
330
47
100
AcDbScale
 70
     0
300
1" = 1'-0"
140
1.0
141
12.0
290
     0
  0
SCALE
  5
65
102
{ACAD_REACTORS
330
47
102
}
330
47
100
AcDbScale
 70
     0
300
1-1/2" = 1'-0"
140
1.5
141
12.0
290
     0
  0
SCALE
  5
66
102
{ACAD_REACTORS
330
47
102
}
330
47
100
AcDbScale
 70
     0
300
3" = 1'-0"
140
3.0
141
12.0
290
     0
  0
SCALE
  5
67
102
{ACAD_REACTORS
330
47
102
}
330
47
100
AcDbScale
 70
     0
300
6" = 1'-0"
140
6.0
141
12.0
290
     0
  0
SCALE
  5
68
102
{ACAD_REACTORS
330
47
102
}
330
47
100
AcDbScale
 70
     0
300
1'-0" = 1'-0"
140
12.0
141
12.0
290
     0
  0
ENDSEC
  0
EOF
